The Like - Waves That Never Break Chords & Tabs

 

Waves That Never Break Chords & Tabs

The Like Chords & Tabs

Version: 1 Type: Bass Tab

Waves That Never Break Bass Tab

Band - The Like
Song - Waves that Never Break
Album - Are You Thinking What I'm Thinking?
Track - 13
Bassist - Charlotte Froom

G----------------------|
D-7~~~---7-6~~~~-------|
A----------------------|
D----------------------|

G---------6---2-/-4----|
D-7---4----------------|
A----------------------|
D----------------------|

G--------3---6---3---4--|
D-4---------------------|
A-----------------------|
D-----------------------|

G-4---6---4---3------------------|
D-----------------------4--------|
A-----------------4------------4-|
D--------------------------------|

G--------3---6---3---4--|
D-4---------------------|
A-----------------------|
D-----------------------|

G-4---6---4---3------------------|
D-----------------------4--------|
A-----------------4--------------|
D--------------------------------|

G------------------------------------------------------------|
D--4-3-2-5------6-----5-------4---4-3-2-5------6-------5-----|
A-----------6------7------7-----------------6------7------7--|
D------------------------------------------------------------|

G----------------------|
D-7~~~---7-6~~~~-------|
A----------------------|
D----------------------|

G---------6---2-/-4----|
D-7---4----------------|
A----------------------|
D----------------------|

G--------3---6---3---4--|
D-4---------------------|
A-----------------------|
D-----------------------|

G-4---6---4---3------------------|
D-----------------------4--------|
A-----------------4------------4-|
D--------------------------------|
[ Tab from: http://www.guitartabs.cc/tabs/t/the_like/waves_that_never_break_btab.html ]
G--------3---6---3---4--|
D-4---------------------|
A-----------------------|
D-----------------------|

G-4---6---4---3--------------------------|
D----------------------------------------|
A-----------------4-----5----5--7--5---2-|
D----------------------------------------|

G---------------------------------------|
D---------------------------------------|
A-4----4--8--4--6----6-5----5--7--5---2-|
D---------------------------------------|

G-----------------------------------------------------|
D-----------------------------------------------------|
A-4----4--8--4--6-----------4--1--6~~~--4--1----------|
D--------------------1------------------------1---3---|

Break

G---------------------------------|
D--4---4-3-2-5------6-----5-------|
A-4--------------6------7------7--|
D---------------------------------|

G----------------------|
D-7~~~---7-6~~~~-------|
A----------------------|
D----------------------|

G---------6---2-/-4----|
D-7---4----------------|
A----------------------|
D----------------------|

G--------3---6---3---4--|
D-4---------------------|
A-----------------------|
D-----------------------|

G-4---6---4---3------------------|
D-----------------------4--------|
A-----------------4------------4-|
D--------------------------------|

G--------3---6---3---4--|
D-4---------------------|
A-----------------------|
D-----------------------|

G-4---6---4---3--------------------------|
D----------------------------------------|
A-----------------4-----5----5--7--5---2-|
D----------------------------------------|

G------------|
D------------|
A---9~~~~~---|
D------------|