The Like - Too Late Chords & Tabs

 

Too Late Chords & Tabs

The Like Chords & Tabs

Version: 1 Type: Bass Tab

Too Late Bass Tab

   
Band - The Like
Song - Too Late
Album - Are You Thinking What I'm Thinking?
Track - 8
Bassist - Charlotte Froom

This was a tricky little song to figure out, especially the chorus and the quiet "too 
bits.
Can't be certain that everything is right, but it sounds 95% right.
Corrections would be appreciated for this one though.

Intro/Verse

G-2-2-5-5-----5-5-----5-5-----5-4-|
D---------5-5-----4-4-----2-2-----|
A---------------------------------|
E---------------------------------| x2

G---------------------------------|
D---------------------------------|
A-0-0-3-3-----3-3-----3-3-----3-2-|
E---------3-3-----2-2-----0-0-----| x2

Chorus

G------------------------------------|
D------------------------------------|
A------------------------------------|
E-1-1-1-1-1-1-1-1-3-3-3-3-3-3-3/15/3-| x2

G-----------------------------------------------------------------|
D-----------------------------------------------------------------|
A-----------------------------------------------------------------|
E-6-6-6-6-6-6-6-6-7-7-7-7-7-7-7-7-8-8-8-8-8-8-8-8-9-9-9-9-9-9-9-9-|

The "Too Late" bit

G-10~------9~-----7---------|
D---------------------------|
A---------------------------|
E-9*~------8*~----6*~-------|

Verse

G---------------------------------|
D---------------------------------|
A-0-0-3-3-----3-3-----3-3-----3-2-|
E---------3-3-----2-2-----0-0-----| x4

Chorus Variation
[ Tab from: http://www.guitartabs.cc/tabs/t/the_like/too_late_btab.html ]
G--------------------------------------|
D----------------------------5-3p2p0---|
A-------------------------/7---------3-|
E-1-1-1-1-1-1-1-1-3-3-3-3--------------| x2

G-----------------------------------------------------------------|
D-----------------------------------------------------------------|
A-----------------------------------------------------------------|
E-6-6-6-6-6-6-6-6-7-7-7-7-7-7-7-7-8-8-8-8-8-8-8-8-9-9-9-9-9-9-9-9-|

The "Too Late" bit

Solo
G---------------------------------|
D---------------------------------|
A---------------------------------|
E-5-5/8-8-3-3/8-8-2-2/8-8/0-0-8-7-| x2

G-------------------------------------|
D-------------------------------------|
A-------------------------------------|
E-10-10-10-10-8-8-8-8-7-7-7-7-0-0-0-0-| x1

G---------------------------------|
D---------------------------------|
A---------------------------------|
E-5-5/8-8-3-3/8-8-2-2/8-8/0-0-8-7-| x1

Chorus Variation x1
The "Too Late" Bit x1

"You're Too Late, Too Late..."
G-----------------------13~-------------------------------|
D-----------------------------------14~------12~----------|
A----12~-------10~---------------12-------10--------8~~~~-|
E-10---------8---------0----------------------------------|

Ending
G---------------------------------|
D---------------------------------|
A-0-0-3-3-----3-3-----3-3-----3-2-|
E---------3-3-----2-2-----0-0-----| x3

G---------------------------------|
D---------------------------------|
A-0-0-3-3-----3-3-0~~~~-----------|
E---------3-3---------------------|