The Like - Once Things Look Up Chords & Tabs

 

Once Things Look Up Chords & Tabs

The Like Chords & Tabs

Version: 1 Type: Bass Tab

Once Things Look Up Bass Tab

   
Band - The Like
Song - Once Things Look Up
Album - Are You Thinking What I'm Thinking?
Track - 6
Bassist - Charlotte Froom

Figuring out the ending to this was a right game! I'm pretty sure it's right though

Intro
G-----------------------------------------------|
D---------------------------------------------4-|
A---------7-7-7-7-7--5------------7-7-7-7-7-5---|
E-0---0------------------0---0------------------| x2

Verse
G-----------------------------------------------|
D---------------------------------------------4-|
A---------7-7-7-7-7--5-5----------7-7-7-7-7-5---|
E-0---0------------------0---0------------------| x4

G-------------------------------------------------|
D-------------------------------------------------|
A-0---0---7-7-7-7-7--9-7---0---0---7-7-7-7-7--5-5-|
E-------------------------------------------------|

G-------------------------------------------------|
D-------------------------------------------------|
A-0---0---7-7-7-7-7--9-7---0---0---7-7-9-9-7--5-7-|
E-------------------------------------------------|

G-----------------------------------------------|
D---------------------------------------------4-|
A---------7-7-7-7-7--5-5----------7-7-7-7-7-5---|
E-0---0------------------0---0------------------|

G-----------------------------------------------|
D-----------------------------------------------|
A---------7-7-7-7-7--5-5----------7-7-7-7-7-5-2-|
E-0---0------------------0---0------------------|

Chorus
G-----------------------------------------------------------|
D-----------------------------------------------------------|
A---------3-2-0---0---0-2-0-----------------0-2---2/7-5-3-2-|
E-3---3---------------------3-0---0---0-2-3-----------------| x2

G---------------------------|
D---------------------------|
A---------3-2-0~~~----------|
E-3---3---------------------|

Interlude
G-----------------------------------------------|
D---------------------------------------------4-|
A---------7-7-7-7-7--5------------7-7-7-7-7-5---|
E-0---0------------------0---0------------------| x1

Repeat Verse
Repeat Chorus
[ Tab from: http://www.guitartabs.cc/tabs/t/the_like/once_things_look_up_btab.html ]
Bridge
G----------------------------------|
D----------------------------------|
A-/7-7-7-7-7-7-7-7-7-7-7-7-7-7-7-7-|
E----------------------------------|

G------------------------------------------------------------------------------|
D------------------------------------------------------------------------------|
A-0---0---7-7-5-4-2--0---0---7-7-5-4-2--0---0---7-7-5-4-2--0---0--/12-12-12-12-|
E------------------------------------------------------------------------------|

G----------------------------------------------------------------------------------------------------|
D----------------------------------------------------------------------------------------------------|
A-0---0---7-7-5-4-2--0---0---7-7-5-4-2--0---0---7-7-5-4-2--0---0--/12-12-12-12---0---0--/12-12-12-12-|
E----------------------------------------------------------------------------------------------------|

Ending
G-----------------------------------------------------------------|
D-7---7---12-11-9---9---9-11-9-7----------------------------------|
A--------------------------------9---9---9-7-9-7--4---4-/-9-7-5-4-|
E-----------------------------------------------------------------|

G---------------------------------------------------------------|
D---------------------------------------------------------------|
A-0---0---5-4-2---2---2-4-2-0-----------------4---4-/-9-7-5-4---|
E-----------------------------2---2---2-4-5-2-------------------| x2

G---------------------------------------------------------------6-4--|
D--------------------------------------------------------------------|
A-0-0-0-0-0-0-0-0-2-2-2-2-2-2-2-2/9-9-9-9-9-9-9-9-4-4-4-4-/-9-7------|
E--------------------------------------------------------------------| x1

G-----------------------------------------------------------------|
D-7---7---12-11-9---9---9-11-9-7----------------------------------|
A--------------------------------9---9---9-7-9-7--4---4-/-9-7-5-4-|
E-----------------------------------------------------------------| x1

G---------------------------------------|
D---------------------------------------|
A-0---0---5-4-2--------------/9~~~~~----|
E---------------------------------------|