The Like - June Gloom Chords & Tabs

 

June Gloom Chords & Tabs

The Like Chords & Tabs

Version: 1 Type: Tab

June Gloom Tab

   
----------------------------------------------------------------------------
			     SONG NAME - Band Name
----------------------------------------------------------------------------
Tabbed by:Dan Austin
Email:porcomatamacaco@hotmail.co.uk
[ Tab from: http://www.guitartabs.cc/tabs/t/the_like/june_gloom_tab.html ]
Tuning:Standard
 
Intro( softly, as it is a bass driven song)    
     
(played continuously)
     G
e|---3---------------------------------------------------------------------|
B|---3---------------------------------------------------------------------|
G|---4---------------------------------------------------------------------|
D|---5---------------------------------------------------------------------|
A|---5---------------------------------------------------------------------|
E|---3---------------------------------------------------------------------|

Chorus
e|-3----7-------8-----------------------------------------------|
B|-3----7-------9-----------------------------------------------|
G|-4----8-(x16)-9-(x16)-----------------------------------------| x2
D|-5----9------10-----------------------------------------------|
A|-5----9------10-----------------------------------------------|
E|-3/---7-------8-----------------------------------------------|

That's all i know so far.