The Las - Looking Glass Chords & Tabs

 

Looking Glass Chords & Tabs

The Las Chords & Tabs

Version: 1 Type: Tab 0 ratings
1 star 2 stars 3 stars 4 stars 5 stars
comments

Looking Glass Tab

   
Looking Glass 
by the La's

NOTE: Capo 1st fret, standard tuning 

INTRO
------------------------------0----|| 
------------------------------2----|| 
------------------------------2---*|| 
------2-3-5-3-2---------------2---*|| 
3-5-------------5-3p2p0-0-----0----|| 
-----------------------------------|| 


----2-2--0-------2-2--0-------2-2--0-------2----------0- 
----3-3--2-------3-3--2-------3-3--2-------3----------2- 
----2-2--2-------2-2--2-------2-2--2-------2----------2- 
----0-0--2-------0-0--2-------0-0--2-------0----------2- 
----0------------0------------0------------0----------0- 
-------------------------------------------------------- 
    D    A       D    A       D    A       D          A 

SECOND INTRO/VERSE

------------------------------------------ 
------------2-----2-----2-----3--3-----3--
------2-----2-----2-----2-----2--2-----2--
------------------------------------------
---0----------0-----0------0--------0-----
------------------------------------------
   A                          D

-------------------------------------------------
---------------------2----2----2----2h3--3-------
---------------------2----2----2----2----2-------
------------------4------------------------------
--------0-2-4------------------------------------
---------------2-------2----2----2----------2-2--
               F#m                  F#m6

-------------------------------------------0-0--------
--------------------2------3---------2-3--------------
-----------------2--2------2-----2---2-2--------------
------------------------------2-----------------------
--------------0--------0------------------------0-0--- 
----2-2-2-0-------------------------------------------
              A            Asus4
[ Tab from: http://www.guitartabs.cc/tabs/t/the_las/looking_glass_tab.html ]
------------------------------------------------------------- 
-----------------3---3-----------------2-----2h3-------------- 
-------------2---2---2-----------------2-----2---------------- 
----------0--------0-----0------------------------------------ 
--0-2-4--------------------4-2-------4------------------------ 
----------------------------------2--------2---------2-2-0---- 
          D                       F#m        F#m6

CHORUS: 
-----------------------------------------------------0-----0--0-----------------
--2-0-2-3-2-0---------3-2-3-2-3------------3-2---3---3-3------0-0---0-----------
--2-2-2-2-2-2---------2-2-2-2-2------------2-2---2---2---2----2---2-------------
--2-2-2-2-2-2-------0-0-0-0-0-0------------3-3---3---3--------3---------------5-
0-------------------------------------------------------------------------2-5---
------------------------------------------------------------------------3-------




BRIDGE: 
-------------------------------------------------------------------------------
-------------------------------------------------------------------------------
-------------------------------------------------------------------------------
---2-2-2-2-2-2-2-2-2-2-2-2----------5------2-2-2-2-2-2-2-2-2-2-2-2----------5--
---0-0-0-0-0-0-0-0-0-0-0-0------2-5--------0-0-0-0-0-0-0-0-0-0-0-0------2-5----
------------------------------3---------------------------------------3--------
A

(Then back into verse two)

SECOND CHORUS :

A / D(sus2) / Dm(sus2) / G

OUTRO:  

A / A / D / Dm / A / A / D /Dm 






CHORDS: 
--0---------0-------2-------2-------2-------1------0--------0------3---------- 
--2---------3-------2-------3-------3-------3------3--------3------3---------- 
--2---------2-------2-------2-------2-------2------2--------2------0---------- 
--2---------2-------4-------4-------0-------3------0--------3------0---------- 
--0---------0-------4-------4-------0-------0------0--------0------2---------- 
--------------------2-------2--------------------------------------3---------- 
  A       Asus4    F#m     F#m6     D       Dm    Dsus2   Dmsus2   G
Comments