The Kooks - She Moves In Her Own Way Chords & Tabs

 

She Moves In Her Own Way Chords & Tabs

The Kooks Chords & Tabs

Version: 2 Type: Tab

She Moves In Her Own Way Tab

ok im thinking this solo isnt 100% perfect bt its my first tab nd neway no one else has 
to tab the solo yet so yano :) gud song nehu


e|------------------0-------0----3--7s-5---3---8-7-|
b|--------------0------3---------------------------|
g|--------0---2------------------------------------|
d|--2-0-2------------------------------------------|
a|-------------------------------------------------|
e|-------------------------------------------------|
[ Tab from: http://www.guitartabs.cc/tabs/t/the_kooks/she_moves_in_her_own_way_tab_ver_2.html ]
--5-7-3-----------------------0--------18s-16s-14-16--10--|
--------------------------0---------3---------------------|
-------------------0--------------------------------------|
-------------2-0-2----------------------------------------|
----------------------------------------------------------|
----------------------------------------------------------|


---12-10--8-7--5--7-------------------------------------|
------------------8-------------------------------------|
--------------------------------------------------------|
--------------------------------------------------------|
--------------------------------------------------------|
--------------------------------------------------------|