The Kooks - I Want You Back Chords & Tabs

 

I Want You Back Chords & Tabs

The Kooks Chords & Tabs

Version: 1 Type: Tab

I Want You Back Tab

   
-------------------------------------------------------------------------------
	                I want you back - The kooks
-------------------------------------------------------------------------------
Tabbed by:t00re
Email:sexyknobhead@hotmail.com

Tuning:E A D G B E
[ Tab from: http://www.guitartabs.cc/tabs/t/the_kooks/i_want_you_back_tab.html ]
Intro
e|---1---1----------5-------------1---1------------------------------------------|
B|-3------------------3--4-44---3------------------------------------------------|
G|-----2---2--2/4-4-----------------2---2----------------------------------------|
D|------------------------------------------3------------------------------------|
A|----------------------------------------0--------------------------------------|
E|-------------------------------------------------------------------------------|
pm.......................x.xx..................................................

| /  slide up
|   slide down
| h  hammer-on
| p  pull-off
| ~  vibrato
| +  harmonic
| x  Mute note
===============================================================================