The Kills - Superstition Chords & Tabs

 

Superstition Chords & Tabs

The Kills Chords & Tabs

Version: 1 Type: Tab 0 ratings
1 star 2 stars 3 stars 4 stars 5 stars
comments

Superstition Tab

   
Band - The Kills
Song - Superstition

Tuning: standard

     C5        D#5   F5              C5 D#5                                  
e|-----------------------|-----------------------|-------------------------|
B|-----------------------|-----------------------|-------------------------|
G|--5----5--8--8--10--5--|--------5--8--8--8--8--|--5------5--8--8--10--5--|
D|--5----5--8--8--10--5--|--------5--8--8--8--8--|--5------5--8--8--10--5--|
A|--3----3--6--6--8---3--|--------3--6--6--6--6--|--3------3--6--6--8---3--|
E|-----------------------|-----------------------|-------------------------|

e|-----------------------|-----------------------|-------------------------|
B|-----------------------|-----------------------|-------------------------|
G|--------5--8--8--8--8--|--5----5--8--8--10--5--|----------5--8--8--8--8--|
D|--------5--8--8--8--8--|--5----5--8--8--10--5--|----------5--8--8--8--8--|
A|--------3--6--6--6--6--|--3----3--6--6--8---3--|----------3--6--6--6--6--|
E|-----------------------|-----------------------|-------------------------|

e|-----------------------|-----------------------|-------------------------|
B|-----------------------|-----------------------|-------------------------|
G|--5----5--8--8--10--5--|--------5--8--8--8--8--|--5------5--8--8--10--5--|
D|--5----5--8--8--10--5--|--------5--8--8--8--8--|--5------5--8--8--10--5--|
A|--3----3--6--6--8---3--|--------3--6--6--6--6--|--3------3--6--6--8---3--|
E|-----------------------|-----------------------|-------------------------|

e|-----------------------|-----------------------|-------------------------|
B|-----------------------|-----------------------|-------------------------|
G|--------5--8--8--8--8--|--5----5--8--8--10--5--|----------5--8--8--8--8--|
D|--------5--8--8--8--8--|--5----5--8--8--10--5--|----------5--8--8--8--8--|
A|--------3--6--6--6--6--|--3----3--6--6--8---3--|----------3--6--6--6--6--|
E|-----------------------|-----------------------|-------------------------|

e|-----------------------|-----------------------|-------------------------|
B|-----------------------|-----------------------|-------------------------|
G|--5----5--8--8--10--5--|--------5--8--8--8--8--|--5------5--8--8--10--5--|
D|--5----5--8--8--10--5--|--------5--8--8--8--8--|--5------5--8--8--10--5--|
A|--3----3--6--6--8---3--|--------3--6--6--6--6--|--3------3--6--6--8---3--|
E|-----------------------|-----------------------|-------------------------|

									  x3
e|----------------------||-----x-----------------|-----x-------------------|
B|----------------------||-----x-----------------|-----x-------------------|
G|-------5--8--8--8--8--||o--5----5--8--8/-10--5-|-----x--5--8--8--8/-10--o|
D|-------5--8--8--8--8--||o--5-x--5--8--8/-10--5-|-----x--5--8--8--8/-10--o|
A|-------3--6--6--6--6--||---3-x--3--6--6/-8---3-|-----x--3--6--6--6/-8----|
E|----------------------||-----------------------|-------------------------|

                                               x3
e||----------------------|----------------------||-----|
B||----------------------|----------------------||-----|
G||o--5---5--8--8--10--5-|------5--8--8--8--8--o||--5--|
D||o--5---5--8--8--10--5-|------5--8--8--8--8--o||--5--|
A||---3---3--6--6--8---3-|------3--6--6--6--6---||--3--|
E||----------------------|----------------------||-----|

    F#5                     E5                                              
e||-------------------------------------|----------------------------------|
B||-------------------------------------|----------------------------------|
G||o--11--11--11--11--11--11--9--9------|--11--11--11--11--11--11--9--9----|
D||o--11--11--11--11--11--11--9--9------|--11--11--11--11--11--11--9--9----|
A||---9---9---9---9---9---9---7--7------|--9---9---9---9---9---9---7--7----|
E||-------------------------------------|----------------------------------|

  F#5                        F                                 
e|-----------------------------13------||
B|-----------------------------13------||
G|--11--11--11--11--11--11-----14-----o||
D|--11--11--11--11--11--11-----15-----o||
A|--9---9---9---9---9---9---x--15------||
E|--------------------------x--13------||
[ Tab from: http://www.guitartabs.cc/tabs/t/the_kills/superstition_tab.html ]
   F#5                     E5                                                
e|-------------------------------------|-----------------------------------|
B|-------------------------------------|-----------------------------------|
G|o--11--11--11--11--11--11--9--9---9--|--11--11--11--11--11--11--9--9--9--|
D|o--11--11--11--11--11--11--9--9---9--|--11--11--11--11--11--11--9--9--9--|
A|---9---9---9---9---9---9---7--7---7--|--9---9---9---9---9---9---7--7--7--|
E|-------------------------------------|-----------------------------------|

  F#5                        F                                             
e|-----------------------------13------|----------------------------------||
B|-----------------------------13------|----------------------------------||
G|--11--11--11--11--11--11-----14------|---------------------------------o||
D|--11--11--11--11--11--11-----15------|---------------------------------o||
A|--9---9---9---9---9---9---x--15------|----------------------------------||
E|--------------------------x--13------|--13~---13----13----13--12--13----||

e|-----|---------------------|---------------------|-----------------------|
B|-----|---------------------|---------------------|-----------------------|
G|--4--|---------------------|---------------------|-----------------------|
D|--4--|--7----4----7/-9--4--|--7----4--4--7----4--|--4--7----4--7--7--4---|
A|--2--|--5----2----5/-7--2--|--5----2--2--5----2--|--2--5----2--5--5--2---|
E|-----|---------------------|---------------------|-----------------------|

e|------------------------|------------------------|-----------------------|
B|------------------------|------------------------|-----------------------|
G|------------------------|------------------------|-----------------------|
D|--4--7----4--7--7--4----|--4--7----4--7--7--4----|--7----4----7/-9--4----|
A|--2--5----2--5--5--2----|--2--5----2--5--5--2----|--5----2----5/-7--2----|
E|------------------------|------------------------|-----------------------|

e|-----------------------|------------------------|------------------------|
B|-----------------------|------------------------|------------------------|
G|-----------------------|------------------------|------------------------|
D|--7----4--4--7----4----|--4--7----4--7--7--4----|--4--7----4--7--7--4----|
A|--5----2--2--5----2----|--2--5----2--5--5--2----|--2--5----2--5--5--2----|
E|-----------------------|------------------------|------------------------|

									 x3
e|----------------------||------x-----------------|---x-------------------||
B|----------------------||------x-----------------|---x-------------------||
G|----------------------||o--5-----5--8--8/-10--5-|---x--5--8--8--8/-10--o||
D|--4--7----4--7--7--4--||o--5--x--5--8--8/-10--5-|---x--5--8--8--8/-10--o||
A|--2--5----2--5--5--2--||---3--x--3--6--6/-8---3-|---x--3--6--6--6/-8----||
E|----------------------||------------------------|-----------------------||

e|-------------------------|-----------------------|-----|
B|-------------------------|-----------------------|-----|
G|--5------5--8--8--10--5--|--------5--8--8--8--8--|--5--|
D|--5------5--8--8--10--5--|--------5--8--8--8--8--|--5--|
A|--3------3--6--6--8---3--|--------3--6--6--6--6--|--3--|
E|-------------------------|-----------------------|-----|

  F#5                     E5                                              
e|------------------------------------|------------------------------------|
B|------------------------------------|------------------------------------|
G|--11--11--11--11--11--11--9--9------|--11--11--11--11--11--11--9--9------|
D|--11--11--11--11--11--11--9--9------|--11--11--11--11--11--11--9--9------|
A|--9---9---9---9---9---9---7--7------|--9---9---9---9---9---9---7--7------|
E|------------------------------------|------------------------------------|

  F#5                        F            F#5                     E5            
e|-----------------------------13--||--------------------------------------|
B|-----------------------------13--||--------------------------------------|
G|--11--11--11--11--11--11-----14--||o--11--11--11--11--11--11--9--9----9--|
D|--11--11--11--11--11--11-----15--||o--11--11--11--11--11--11--9--9----9--|
A|--9---9---9---9---9---9---x--15--||---9---9---9---9---9---9---7--7----7--|
E|--------------------------x--13--||--------------------------------------|

					F#5                        F          
e|-------------------------------------|-----------------------------13----|
B|-------------------------------------|-----------------------------13----|
G|--11--11--11--11--11--11--9--9----9--|--11--11--11--11--11--11-----14----|
D|--11--11--11--11--11--11--9--9----9--|--11--11--11--11--11--11-----15----|
A|--9---9---9---9---9---9---7--7----7--|--9---9---9---9---9---9---x--15----|
E|-------------------------------------|--------------------------x--13----|

				    x3
e|-----------------------------------||------|
B|-----------------------------------||------|
G|----------------------------------o||--11--|
D|----------------------------------o||--11--|
A|-----------------------------------||--9---|
E|--13~---13----13----13--12--13-----||------|
Comments