The Killers - Mr Brightside Chords & Tabs

 

Mr Brightside Chords & Tabs

The Killers Chords & Tabs

Version: 4 Type: Tab 3 ratings
1 star 2 stars 3 stars 4 stars 5 stars
comments

Mr Brightside Tab

   
Mr. Brightside
The Killers   3:49
Eb Bb Gb Db Ab Eb(half tone down)
99%correct

|--------------0-------------------------0---------------------------|
|----------------17------------------------17------------------------|
|--------19---------19-------------19---------19---------------------|
|-----16----16---------16-------16----16---------16------------------|
|--17------------------------16--------------------------------------|
|--------------------------------------------------------------------|
                               				               x6
|--------------0----------------------0------------------------------|
|----------------17---------------------17---------------------------|
|--------19---------19----------19---------19------------------------|
|-----16----16---------16----16----16---------16---------------------|  
|--------------------------------------------------------------------|
|--15---------------------15-----------------------------------------|

|----------0---------------------------------------------------------|
|------------5-------------------------------------------------------|
|------7-------7-----------------------------------------------------| x16
|----0---0-------0---------------------------------------------------|
|--------------------------------------------------------------------|
|--3-----------------------------------------------------------------|

|--------------------------------------------------------------------|
|--7---7---7---7---8---8---8---8---10---10---10---10---5~--5---5-----|
|----7---7---7---7---7---7---7---7----7----7----7----7---7---6---7---| x2
|--------------------------------------------------------------------|
|--------------------------------------------------------------------|
|--------------------------------------------------------------------|

|--5-----5-----5---7-----7-----7---10------10------10----------------|
|----7-----7-----7---8-----8-----8----10------10------10-5~--5---5---|
|------7-----7---------7-----7-----------7-------7---------7---6---7-| x2
|--------------------------------------------------------------------|
|--------------------------------------------------------------------|
|--------------------------------------------------------------------|

|--------------------------------------------------------------------|
|--7---7---7---7---8---8---8---8---10---10---10---10---5~--5--5------|
|----7---7---7---7---7---7---7---7----7----7----7----7---7---6--7----| x2
|--------------------------------------------------------------------|
|--------------------------------------------------------------------|
|--------------------------------------------------------------------|
[ Tab from: http://www.guitartabs.cc/tabs/t/the_killers/mr_brightside_tab_ver_4.html ]
|--------------0-------------------------0---------------------------|
|----------------17------------------------17------------------------|
|--------19---------19-------------19---------19---------------------|
|-----16----16---------16-------16----16---------16------------------|
|--17------------------------16--------------------------------------|
|--------------------------------------------------------------------|
                               				               x4
|--------------0----------------------0------------------------------|
|----------------17---------------------17---------------------------|
|--------19---------19----------19---------19------------------------|
|-----16----16---------16----16----16---------16---------------------|  
|--------------------------------------------------------------------|
|--15---------------------15-----------------------------------------|

|----------0---------------------------------------------------------|
|------------5-------------------------------------------------------|
|------7-------7-----------------------------------------------------| x16
|----0---0-------0---------------------------------------------------|
|--------------------------------------------------------------------|
|--3-----------------------------------------------------------------|

|--------------------------------------------------------------------|
|--7---7---7---7---8---8---8---8---10---10---10---10---5~--5---5-----|
|----7---7---7---7---7---7---7---7----7----7----7----7---7---6---7---| x2
|--------------------------------------------------------------------|
|--------------------------------------------------------------------|
|--------------------------------------------------------------------|

|--5-----5-----5---7-----7-----7---10------10------10----------------|
|----7-----7-----7---8-----8-----8----10------10------10-5~--5---5---|
|------7-----7---------7-----7-----------7-------7---------7---6---7-| x2
|--------------------------------------------------------------------|
|--------------------------------------------------------------------|
|--------------------------------------------------------------------|
								       
|--------------------------------------------------------------------|
|--7---7---8---10---8---10---8---7---7---7---8---7---5-3-2~-/--------|
|----7---7---7----7---7----7---7---7---7---7---7---7-----------------| x2
|--------------------------------------------------------------------|
|--------------------------------------------------------------------|
|--------------------------------------------------------------------|

|--------------------------------------------------------------------|
|--7---7---7---7---8---8---8---8---10---10---10---10---5~--5---5-----|
|----7---7---7---7---7---7---7---7----7----7----7----7---7---6---7---| x4
|--------------------------------------------------------------------|
|--------------------------------------------------------------------|
|--------------------------------------------------------------------|

|--------------------------------------------------------------------|
|---------------5-3-2~~~~--------------------------------------------|
|--------------------------------------------------------------------|
|---fourth time------------------------------------------------------|
|--------------------------------------------------------------------|
|--------------------------------------------------------------------|

Alex. Requests patunox@hotmail.com
Comments