The Killers - Mr Brightside Chords & Tabs

 

Mr Brightside Chords & Tabs

The Killers Chords & Tabs

Version: 2 Type: Tab 7 ratings
1 star 2 stars 3 stars 4 stars 5 stars
comments

Mr Brightside Tab

Easier way to play Mr Brightside

*Note A string tuned to G* 

Intro:
E|-----------11-----|-----------11-----|-----------11-----|-----------11-----|
B|-----14--14--14---|-----14--14--14---|-----14--14--14---|-----14--14--14---|
G|---13--13------13-|---13--13------13-|---13--13------13-|---13--13------13-|
D|-11---------------|-10---------------|------------------|------------------|
G|------------------|------------------|--11--------------|--11--------------|
E|------------------|------------------|------------------|------------------|
Repeat x6


Pre-Chorus:
E|------------------|------------------|------------------|------------------|
B|------------4-----|------------4-----|------------4-----|------------4-----|
G|------6---6---6---|------6---6---6---|------6---6---6---|------6---6---6---|
D|--4-6---6-------6-|--4-6---6-------6-|--4-6---6-------6-|--4-6---6-------6-|
G|------------------|------------------|------------------|------------------|
E|------------------|------------------|------------------|------------------|

E|------------------|------------------|------------------|------------------|
B|------------4-----|------------4-----|------------4-----|------------4-----|
G|------6---6---6---|------6---6---6---|------6---6---6---|------6---6---6---|
D|----6---6-------6-|----6---6-------6-|----6---6-------6-|----6---6-------6-|
G|--6---------------|--6---------------|--6---------------|--6---------------|
E|------------------|------------------|------------------|------------------|
    Repeat x2


Chorus:
E|------------------|------------------|------------------|------------------|
B|-6---6---6---6----|-7---7---7---7----|-9---9---9---9----|------------------|
G|---6---6---6---6--|---6---6---6---6--|---6---6---6---6--|--8---6---5---6---|
D|------------------|------------------|------------------|------------------|
G|------------------|------------------|------------------|------------------|
E|------------------|------------------|------------------|------------------|
    Repeat x2


Chorus outro:
E|-4-----4-----4----|-6-----6-----6----|-9-----9-----9----|------------------|
B|---6------6-----6-|---6------6-----6-|---6------6-----6-|------------------|
G|------6-----6-----|------6-----6-----|------6-----6-----|--8---6---5---6---|
D|------------------|------------------|------------------|------------------|
G|------------------|------------------|------------------|------------------|
E|------------------|------------------|------------------|------------------|
   Repeat x2


 Chorus part again:
E|------------------|------------------|------------------|------------------|
B|-6---6---6---6----|-7---7---7---7----|-9---9---9---9----|------------------|
G|---6---6---6---6--|---6---6---6---6--|---6---6---6---6--|--8---6---5---6---|
D|------------------|------------------|------------------|------------------|
G|------------------|------------------|------------------|------------------|
E|------------------|------------------|------------------|------------------|
   Repeatx2


Verse 2:
E|-----------11-----|-----------11-----|-----------11-----|-----------11-----|
B|-----14--14--14---|-----14--14--14---|-----14--14--14---|-----14--14--14---|
G|---13--13------13-|---13--13------13-|---13--13------13-|---13--13------13-|
D|-11---------------|-10---------------|------------------|------------------|
G|------------------|------------------|--11--------------|--11--------------|
E|------------------|------------------|------------------|------------------|
   Repeat x4

  
[ Tab from: http://www.guitartabs.cc/tabs/t/the_killers/mr_brightside_tab_ver_2.html ]
Pre Chorus:
E|------------------|------------------|------------------|------------------|
B|------------4-----|------------4-----|------------4-----|------------4-----|
G|------6---6---6---|------6---6---6---|------6---6---6---|------6---6---6---|
D|--4-6---6-------6-|--4-6---6-------6-|--4-6---6-------6-|--4-6---6-------6-|
G|------------------|------------------|------------------|------------------|
E|------------------|------------------|------------------|------------------|

E|------------------|------------------|------------------|------------------|
B|------------4-----|------------4-----|------------4-----|------------4-----|
G|------6---6---6---|------6---6---6---|------6---6---6---|------6---6---6---|
D|----6---6-------6-|----6---6-------6-|----6---6-------6-|----6---6-------6-|
G|--6---------------|--6---------------|--6---------------|--6---------------|
E|------------------|------------------|------------------|------------------|
   Repeat x2
   
Chorus:
E|------------------|------------------|------------------|------------------|
B|-6---6---6---6----|-7---7---7---7----|-9---9---9---9----|------------------|
G|---6---6---6---6--|---6---6---6---6--|---6---6---6---6--|--8---6---5---6---|
D|------------------|------------------|------------------|------------------|
A|------------------|------------------|------------------|------------------|
E|------------------|------------------|------------------|------------------|
   Repeat x2

Chorus Outro:
E|-4-----4-----4----|-6-----6-----6----|-7-----7-----7----|------------------|
B|---6------6-----6-|---6------6-----6-|---6------6-----6-|------------------|
G|------6-----6-----|------6-----6-----|------6-----6-----|--8---6---5---6---|
D|------------------|------------------|------------------|------------------|
G|------------------|------------------|------------------|------------------|
E|------------------|------------------|------------------|------------------|
   Repeat x2


Outro:
E|------------------|------------------|------------------|------------------|
B|-6---6---7---9----|-7---9---7---6----|-6---6---7---6----|------------------|
G|---6---6---6---6--|---6---6---6---6--|---6---6---6---6--|--8---6---5\\-----|
D|------------------|------------------|------------------|------------------|
G|------------------|------------------|------------------|------------------|
E|------------------|------------------|------------------|------------------|

E|------------------|------------------|------------------|------------------|
B|-6---6---7---9----|-7---9---7---6----|-6---6---7---6----|------------------|
G|---6---6---6---6--|---6---6---6---6--|---6---6---6---6--|--8---6---5---6---|
D|------------------|------------------|------------------|------------------|
G|------------------|------------------|------------------|------------------|
E|------------------|------------------|------------------|------------------|

Chorus part again: 
E|------------------|------------------|------------------|------------------|
B|-6---6---6---6----|-7---7---7---7----|-9---9---9---9----|------------------|
G|---6---6---6---6--|---6---6---6---6--|---6---6---6---6--|--8---6---5---6---|
D|------------------|------------------|------------------|------------------|
G|------------------|------------------|------------------|------------------|
E|------------------|------------------|------------------|------------------|

E|------------------|------------------|------------------|------------------|
B|-6---6---6---6----|-7---7---7---7----|-9---9---9---9----|------------------|
G|---6---6---6---6--|---6---6---6---6--|---6---6---6---6--|--8---6---5---6---|
D|------------------|------------------|------------------|------------------|
G|------------------|------------------|------------------|------------------|
E|------------------|------------------|------------------|------------------|
   Repeat til song finishes

Last time around finish with:   
E|------------------|
B|------------------|
G|---8---6---5------|
D|------------------|
G|------------------|
E|------------------|                                                          
Comments