The Killers - Change Your Mind Chords & Tabs

 

Change Your Mind Chords & Tabs

The Killers Chords & Tabs

Version: 1 Type: Tab 2 ratings
1 star 2 stars 3 stars 4 stars 5 stars
comments

Change Your Mind Tab

E|------------------------------
B|----6-6-5-6-5-6-5-6-5-6-5-----
G|----5-5-5-5-5-5-5-5-5-5-5-----
D|------------------------------
A|------------------------------
E|------------------------------

E|------------------------------
B|----6-6-5-6-5-6-5-6-5-6-5-----
G|----5-5-5-5-5-5-5-5-5-5-5-----
D|------------------------------
A|------------------------------
E|------------------------------

E|------------------------------
B|----6-6-5-6-5-6-5-6-5-6-5-----
G|----5-5-5-5-5-5-5-5-5-5-5-----
D|------------------------------
A|------------------------------
E|------------------------------

E|------------------------------
B|----6-6-5-6-5-6-5-6-5-6-5-----
G|----5-5-5-5-5-5-5-5-5-5-5-----
D|------------------------------
A|------------------------------
E|------------------------------
[ Tab from: http://www.guitartabs.cc/tabs/t/the_killers/change_your_mind_tab.html ]
E|------------------------------
B|----4-4-3-4-3-4-3-4-3-4-3-----
G|----3-3-3-3-3-3-3-3-3-3-3-----
D|------------------------------
A|------------------------------
E|------------------------------

E|------------------------------
B|----4-4-3-4-3-4-3-4-3-4-3-----
G|----3-3-3-3-3-3-3-3-3-3-3-----
D|------------------------------
A|------------------------------
E|------------------------------

E|------------------------------
B|----4-4-3-4-3-4-3-4-3-4-3-----
G|----3-3-3-3-3-3-3-3-3-3-3-----
D|------------------------------
A|------------------------------
E|------------------------------

E|------------------------------
B|----4-4-3-4-3-4-3-4-3-4-3-----
G|----3-3-3-3-3-3-3-3-3-3-3-----
D|------------------------------
A|------------------------------
E|------------------------------
THIS IS A VERY GOOD SONG.....I HOPE YOU ENJOY THE TAB
ANY QUESTIONS E-MAIL ME AT UHHUHNADS@YAHOO.COM
Comments