The Killers - All These Things That Ive Done Chords & Tabs

 

All These Things That Ive Done Chords & Tabs

The Killers Chords & Tabs

Version: 1 Type: Tab 8 ratings
1 star 2 stars 3 stars 4 stars 5 stars
comments

All These Things That Ive Done Tab

The Killers
All these things that ive done
hott fuse


(0:45)  INTRO
-------------------------------------------- -----------------------------------
-------------------------------------------  ------------------------------------
-------------------------------------------  ------------------------------------
-11---11--8-11---------11---11--8-11------   ---8--8---8-----8---8---8-----------
---------------9--9------------------9--9-   -9---9--9---9-9---9---9-------------
------------------------------------------   ------------------------------------

(1:10)
-------              ---2---------2-----2----------------
-------              ---2---------4-----2----------------
-------  REPEAT INTRO---3---------4-----3----------------
--4----              ---4--X 16---4--X8-4--X8------------
--2----              -- 4---------2-----4----------------
-------              ---2---------------2----------------
[ Tab from: http://www.guitartabs.cc/tabs/t/the_killers/all_these_things_that_ive_done_tab.html ]
(1:56)          (2:07)
--2----        ---------2--------2-----2-----6------2--
--2----        ---------2--------4-----2-----8------4--
--3----  REPEAT --------3--------4-----3-----8------4--
--4----  INTRO----------4--X16---4--X8-4--X8-8--X8--4--
--4----  ONCE-----------4--------2-----4-----6------2--
--2----      -----------2--------------2----------------


(2:31)
PALM MUTE XXXXXXXXXXXXXXXXXXXXXX
-------------------------------------  -----------------------------
-------------------------------------  -----------------------------
-------------------------------------  -----------------------------
-----------------------4--X8---------  ---------4---4-4-------------
-4-4-4-4-4-4-4-4-X8----2------4------  4---4-4--2---2-2------4---4-4
-2-2-2-2-2-2-2-2--------------2--X8--  2---2-2---------------2---2-2


(3:12)
--2------2-----2-------
--2------4-----2-------
--3------4-----3-------
--4------4--X8-4--X16--
--4--X8--2-----4-------
--2------------2-------


(3:29)

-2------2------2
-2------4------2
-3--X16-4--X8--3 X8   X2
-4------4------4
-4------2------4
-2-------------2

(4:01)

--6------2------2
--8------4------2
--8------4------3
--8--X8--4--X16-4
--6------2------4
----------------2

REPEAT INTRO UNTIL END OF SONG>
Comments