The John Butler Trio - Zebra Chords & Tabs

 

Zebra Chords & Tabs

The John Butler Trio Chords & Tabs

Version: 1 Type: Tab 2 ratings
1 star 2 stars 3 stars 4 stars 5 stars
comments

Zebra Tab

Song: Zebra
Artist: the john butler trio
Album: sunrise over sea
Tuning: Standard
Tabbed by: haunted_prisoner1424@hotmail.com


Repeat this process throughout the song. I hope i havn't missed anything. Have fun!








E:--------------------------------------------------------------------
B:--------------------------------------------------------------------
G:--------------------------------------------------------------------
D:7-9-9-9-7-9---------------------------------------------------------
A:-----------7-9-7-9-5-5-7-5-7-5-7-8-7-5------------------------------
E:--------------------------------------7-5---------------------------
[ Tab from: http://www.guitartabs.cc/tabs/t/the_john_butler_trio/zebra_tab.html ]
E:--------------------------------------------------------------------
B:--------------------------------------------------------------------
G:--------------------------------------------------------------------
D:7-9-9-9-7-9---------------------------------------------------------
A:-----------7-9-7-9-5-5-7-5-7----------------------------------------
E:----------------------------5-7-5-7---------------------------------

E:--------------------------------------------------------------------
B:--------------------------------------------------------------------
G:-----7-6------------------------------------------------------------
D:7-9-9---9-----------------------------------------------------------
A:---------7-9-7-9-5-5-7-5-7-5-7-8-7-5--------------------------------
E:------------------------------------7-5-----------------------------

E:--------------------------------------------------------------------
B:--------------------------------------------------------------------
G:--------------------------------------------------------------------
D:7-9-9-9-7-9---------------------------------------------------------
A:-----------7-9-7-9-5-5-7-5-7-5-7-8-7-5------------------------------
E:--------------------------------------7-5---------------------------

Comments