The Jezabels - Hurt Me Chords & Tabs

 

Hurt Me Chords & Tabs

The Jezabels Chords & Tabs

Version: 1 Type: Tab

Hurt Me Tab

http://www.thejezabels.com/

The part where the intro/verse riff is played on the top two strings can be played 
either there, or on the normal, fifth and fourth string; I just prefer it on the top two.

e--------------------------|
B--------------------------|
G--------------------------|
D--------------------------|
A--10--8--8----10--6--6----|
E--------------------------| x4

e----------------------------|
B----------------------------|
G--12--10--10----12--8--8----|
D--12--10--10----12--8--8----|
A--10--8---8-----10--6--6----|
E----------------------------| x4

e--11-11-10--10------------------11-11-1010--10-----------------|
B-------------------11-8-6--6----------------------11-8-6--6----|
G---------------------------------------------------------------|
D---------------------------------------------------------------|
A---------------------------------------------------------------|
E---------------------------------------------------------------| Played on last two repeats



e----------------------------------|
B----------------------------------|
G----------------------------------|
D--10---10-12-13---13-12-8----8----|
A--10---10-12-13---13-12-8----8----|
E--8----8--10-11---11-10-6----6----|
Oh, love, is that a vulture? Don't tell me it's a vulture
Standing beside you
And do you see your own face in his eyes?
Do you see him like I do? Oh

e-----------------------|
B-----------------------|
G-----------------------|
D--10----13---8----8----|
A--10----13---8----8----|
E--8-----11---6----6----|

e-----------------------|
B-----------------------|
G-----------------------|
D--10----13---8----8----|
A--10----13---8----8----|
E--8-----11---6----6----|
It used to be that when you said you believed it, I would believe it too
It used to be that when you said you were leaving, I'd want to follow you



e------------------------|
B--9-----9---------------|
G--10----10----5----5----|
D--10----10----6----6----|
A--8-----8-----6----6----|
E--------------4----4----|
But never where the dog barks, never where the dogs barks, oh



e----------------------------|
B----------------------------|
G--12--10--10----12--8--8----|
D--12--10--10----12--8--8----|
A--10--8---8-----10--6--6----|
E----------------------------|
But I remember, praying at the dinner table
For you to come around
Maybe pat me on the back when you're able



e----------------------------------|
B----------------------------------|
G----------------------------------|
D--10---10-12-13---13-12-8----8----|
A--10---10-12-13---13-12-8----8----|
E--8----8--10-11---11-10-6----6----|
Now I've a dream of you with half a face
And you take me to a rooftop
And skin me, come on Abel, are you going to skin me?

e-----------------------|
B-----------------------|
G-----------------------|
D--10----13---8----8----|
A--10----13---8----8----|
E--8-----11---6----6----|
And use it as a mask to keep you in the dark, whoa
When the shadow of the moon won't do?
[ Tab from: http://www.guitartabs.cc/tabs/t/the_jezabels/hurt_me_tab.html ]
e-----------------------|
B-----------------------|
G-----------------------|
D--10----13---8----8----|
A--10----13---8----8----|
E--8-----11---6----6----|
Cause on you, the moon is but a pearl
Stolen from your mother's bedside
The day you came in to the world



e------------------------|
B--9-----9---------------|
G--10----10----5----5----|
D--10----10----6----6----|
A--8-----8-----6----6----|
E--------------4----4----|
Still now I can hear the dogs bark, I can hear the dogs bark, oh



e----------------------------|
B----------------------------|
G--12--10--10----12--8--8----|
D--12--10--10----12--8--8----|
A--10--8---8-----10--6--6----|
E----------------------------|
And I remember, praying at the dinner table
For you to come around
Maybe pat me on the back when you're able
oh, whole cities light up, nothing can compare to you baby
So I stay waiting, laying on the dinner table
Waiting for you to hurt me, come on Abel, hurt me, hurt me, hurt, come down to the world
Hurt me, come on Abel, cut me, cut me, serve me round the table


e----------------------------|
B----------------------------|
G--12--10--10----12--8--8----|
D--12--10--10----12--8--8----|
A--10--8---8-----10--6--6----|
E----------------------------|x2

e--11-11-10--10------------------11-11-1010--10-----------------|
B-------------------11-8-6--6----------------------11-8-6--6----|
G---------------------------------------------------------------|
D---------------------------------------------------------------|
A---------------------------------------------------------------|
E---------------------------------------------------------------| Played at same time


e--------------------------------|
B--------------------------------|
G--------------------------------|
D--------------------------------|
A--------------------------------|
E--11-11-10--10----11-11-8--8----|2x


e--------------------------------|
B--------------------------------|
G--------------------------------|
D--------------------------------|
A--------------------------------|
E--11-11-10--10----11-11-8--8----|
And now it's laying on the table
Waiting for you, on the table
To carve it up, and watch the spray go across the river-bed
And sweet aromas filled the halls
From all the bodies that came before
And that's the body, I swear that's the body


e-------------------------|
B-------------------------|
G--12--10------12--8------|
D--12--10------12--8------|
A--10--8-------10--6------|
E-------------------------|
I remember, I was laying on the dinner table
And when you came round, said you you'll be doing fine when you're able
Oh, whole cities light up, but compare to you baby
So I stay waiting, laying on the dinner table



e-------------------------|
B-------------------------|
G--12--10------12--8------|
D--12--10------12--8------|
A--10--8-------10--6------|
E-------------------------|
Oh, hurt me, hurt, hurt me
Oh, cut me, cut me, serve me
Oh
Oh

e--------------|
B--------------|
G--12--10------|
D--12--10------|
A--10--8-------|
E--------------|