The Infadels - Love Like Semtex Chords & Tabs

 

Love Like Semtex Chords & Tabs

The Infadels Chords & Tabs

Version: 1 Type: Tab

Love Like Semtex Tab

   
Hi EveryBody, if something is wrong correct it, it's my first tab :)
I think with this sounds you can play the whole song.

Infadels - Love like semtex

Intro
[ Tab from: http://www.guitartabs.cc/tabs/t/the_infadels/love_like_semtex_tab.html ]
e ---------------------------------------------0-|
b ---------------------------------------------0-|
g ---------------------------------------------1-|
d -2-1-2-1-------------------------------------2-|
a --------2-4----------------------------------2-|
E -------------2-2-2---2-2-2---2-2-2---2-2-2---0-|

e --------------|
b --------------|
g --------------|
d -2-1-2-1------|
a --------2-4---|
E ------------2-|


Verse
if you want to play alone use the following chord
F# and E

Chorus

e 2-2-----------|
b 2-2-----------|
g 3-3-2-3-4-3-6-|
d 4-4-----------|
a 4-4-----------|
E 2-1-----------|

e 2-2----------|
b 2-2----------|
g 3-3-3-4-3----|
d 4-4------4-6-|
a 4-4----------|
E 2-2----------|


http://www.infadels.co.uk/