The Independents - Little Blue Chords & Tabs

 

Little Blue Chords & Tabs

The Independents Chords & Tabs

Version: 1 Type: Bass Tab 0 ratings
1 star 2 stars 3 stars 4 stars 5 stars
comments

Little Blue Bass Tab

Artist: The Independents
Album: Back From The Grave
Song: Little Blue

Fun, easy, cool song.
Standard Tuning

Intro/Verse/Bridge:
G|----------------------------------------------------------------|
D|----------------------------------------------------------------|
A|----0--------0--11111--3333333------0--------0--11111--3333333--|
E|-1-1--1-1-1-1--------------------1-1--1-1-1-1-------------------|
[ Tab from: http://www.guitartabs.cc/tabs/t/the_independents/little_blue_btab.html ]
G|--------------------------------------------------------------|
D|--------------------------------------------------------------|
A|----0-1-3-1-0--11111--3333333------0--------0--11111--3333333-|
E|-1-1----------------------------1-1--1-1-1-1------------------|

Chorus:
G|-------------------------------------------------------|
D|-------------------------------------------------------|
A|-5--7-8-7-5----------------5--7-8-7-5------------------|
E|-------------66666--88888--------------66666--88888----|

G|--------------------------------------------------------|
D|---------5-7-8-7-5-10-8-7-5-----------------------------|
A|-5--7-8-7---------------------5--7-8-7-5----------------|
E|------------------------------------------66666--88888--|

That's the whole song, just repeat many times.Enjoy

Questions or Comments?
vanceaase67@hotmail.com
Comments