The Independents - Garden Of Serenity Live Chords & Tabs

 

Garden Of Serenity Live Chords & Tabs

The Independents Chords & Tabs

Version: 1 Type: Bass Tab 0 ratings
1 star 2 stars 3 stars 4 stars 5 stars
comments

Garden Of Serenity Live Bass Tab

Artist: The Independents
Album: Back From The Grave
Song: Succubus

Easy and very good song.
Standard Tuning

~ = let ring

Intro:
G|----------------5~--|
D|---------------5----|
A|-3---3~---3---3-----|
E|--------------------|

Chorus:
G|------------------------|\
D|------------------------| \
A|3-333-6-666-------------|  x4
E|------------4-444-3-333-|/

Verse:
G|--------------------------------------------|\
D|----5~------5-6-8-6-5------5~--3------------| \
A|-3-6----3-6-------------3-6------6-5-3------|  x4
E|----------------------------------------6---|/

Chorus:
G|------------------------|\
D|------------------------| \
A|3-333-6-666-------------|  x4
E|------------4-444-3-333-|/

Verse:
G|--------------------------------------------|\
D|----5~------5-6-8-6-5------5~--3------------| \
A|-3-6----3-6-------------3-6------6-5-3------|  x4
E|----------------------------------------6---|/
[ Tab from: http://www.guitartabs.cc/tabs/t/the_independents/garden_of_serenity_live_btab.html ]
Chorus:
G|------------------------|\
D|------------------------| \
A|3-333-6-666-------------|  x4
E|------------4-444-3-333-|/

Bridge:
G|---------------------|
D|---------------------|\
A|-3-3--6-6------------| x2
E|----------4-4--3-3---|/

Bridge Cont:
G|-3-5-5-5-------------8-8-8--|
D|---------5-5-5-6-6-6--------|\
A|----------------------------| x2
E|----------------------------|/

Chorus:
G|------------------------|\
D|------------------------| \
A|3-333-6-666-------------|  x4
E|------------4-444-3-333-|/ 

Verse:
G|--------------------------------------------|\
D|----5~------5-6-8-6-5------5~--3------------| \
A|-3-6----3-6-------------3-6------6-5-3------|  x4
E|----------------------------------------6---|/

Outro:
G|---------------------|
D|---1~-4~-5~----------|
A|-3~---------4~----3--|
E|---------------------|

That's it, fun and awesome song. Enjoy

Questions or Comments?
vanceaase67@hotmail.com
Comments