The Independents - Fire And Ice Chords & Tabs

 

Fire And Ice Chords & Tabs

The Independents Chords & Tabs

Version: 1 Type: Bass Tab 0 ratings
1 star 2 stars 3 stars 4 stars 5 stars
comments

Fire And Ice Bass Tab

Band:The Independents
Song: Fire And Ice
Album: Back From The Grave

Simply and cool song

Standard Tuning

Main Part: 

G|--------------------------------->
D|--------------------------------->
A|-5--4--4-5--4--4-5--4--4-5-4----->
E|-----7-------7-------7-------7--->
[ Tab from: http://www.guitartabs.cc/tabs/t/the_independents/fire_and_ice_btab.html ]
G|-------------------------------------------------|
D|-------------------------------------------------|
A|------------------4-------------------------4-5--|
E|-3--4-5--4-3--4-5--5-4--3--4-5--4-3--4-5-7-------|

That's the whole song, just repeat a lot.

Questions or comments?

vanceaase67@hotmail.com
Comments