The Independents - C Is For Cookie Chords & Tabs

 

C Is For Cookie Chords & Tabs

The Independents Chords & Tabs

Version: 1 Type: Bass Tab 0 ratings
1 star 2 stars 3 stars 4 stars 5 stars
comments

C Is For Cookie Bass Tab

Artist: The Independents
Album: Back From The Grave
Song: C Is For Cookie

Intro/Chorus:
G|-------------------------------------------------------|
D|-------------------------------------------------------|
A|-3-33-33-33--2--1-11-11-11--2--3-33-33-33--2--1-1-1--3-|
E|-------------------------------------------------------|
                      ^Not 11th fret
G|---------------------55-------|
D|--------------------5--5-3----|
A|-1-0-------------3~-----------|
E|------3-1-11-3----------------|
[ Tab from: http://www.guitartabs.cc/tabs/t/the_independents/c_is_for_cookie_btab.html ]
Change Up? or verse
G|-7-77-7---------7-77-7--------|
D|---------7-5555--------7-5555-|\
A|------------------------------| x2
E|------------------------------|/

Next Part
G|-5-55-5--------5-55-5---------|
D|--------5-3333--------5-3333--| Play once, then above part once more
A|------------------------------|
E|------------------------------|

Other Chorus
G|----------------------------------------------------|
D|----------------------------------------------------|
A|-4-44-44-44--3--2-22-22-22--3-4-44-44-44--3-2-22--4-|
E|----------------------------------------------------|

G|---------------------|
D|---------------------|
A|-2-1-------------4---|
E|-----4-2-22-4-44-----|

That's it, great song and easy. Enjoy

Questions or Comments?
vanceaase67@hotmail.com
Comments