The Independents - Bloody Night Bloody Knife Chords & Tabs

 

Bloody Night Bloody Knife Chords & Tabs

The Independents Chords & Tabs

Version: 1 Type: Bass Tab 0 ratings
1 star 2 stars 3 stars 4 stars 5 stars
comments

Bloody Night Bloody Knife Bass Tab

Band:The Independents
Song:Bloody Night, Bloody Knife
Album:Back From The Grave

Ok, this song sounds like it's hard, but it is
relatively simple, with cool lyrics

Intro/Verse:
G|----11-12-14-12-11----------------|
D|-12----------------12-12-11-11----|
A|----------------------------------|
E|----------------------------------|
[ Tab from: http://www.guitartabs.cc/tabs/t/the_independents/bloody_night_bloody_knife_btab.html ]
On fourth time of the intro and verse, play:
G|----11-12-14-12-11--12----12---14----14--|
D|-12--------------------12---------12-----|
A|-----------------------------------------|
E|-----------------------------------------|

Chorus:
G|--------------------------------------|
D|--------------------------------------|
A|--------10---12-----------------------|
E|-10-10--------------------------------|

Outro:
G|---------------------|
D|---------------------|
A|----12----12---------|
E|-10----9------10~----|

That's it. Please Rate

Questions or Comments?
vanceaase67@hotmail.com
Comments