The Icarus Account - Favourite Girl Chords & Tabs

 

Favourite Girl Chords & Tabs

The Icarus Account Chords & Tabs

Version: 1 Type: Tab

Favourite Girl Tab

   
Favourite Girl-The Icarus Account
Capo 5

Intro/Verse 1
e|--------------------------x----------x-----|
B|-----0----0---0---0----3--x---3---3--x--0--|
G|----0----0---0---0-----0--x---0---0--x--0--|   x2
D|---5----4---2---0---------x----------x-----|
A|---------------------3----x-----3----x-----|
E|--------------------------x----------x-----|

Boston never seemed to be
So lovely in the fall to me
Florida s not so cold
But this stage just gets old

Pre-chorus riff
E|--------x-----------------------x-----------------------x-----------x------
B|-----3--x--3-----3-----3-----3--x--3-----3-----3-----3ó-x--3-----3--x------
G|-----0--x--0-----0-----0-----0--x--0-----0-----0-----0--x--0-----0--x------
D|--------x-----------------------x-----------------------x-----------x------
A|--------x-----------------------x-----------2-----3-----x-----3-----x------
E|--0-----x-----0-----2-----3-----x-----3-----------------x-----------x------

 --------------------x----|
 --3-----3-----3-----x----|          the last slap is optional, but I just
 --0-----0-----0-----x----|          strum the strings twice while slightly
 --------------------x----|          covering the strings to get a scratchy
 -----3-----3-----3--x----|          sound.
 --------------------x----|

And hey maybe we could stay
Maybe we could lay like this forever

          Cadd9             D
Don't you know she is my favourite girl
         G             Em7
I wanna run away for days with her
          Cadd9          D
And If you promise not to say a thing
           G                Em7
I'm gonna buy that girl a diamond ring

       C   D          G  D Em7
I said ooooo I think I love you
C   D             G D Em7
Ooooo I think I love you
  D    C
I love you

My favourite girl

[intro riff x2]




verse 2 riff
e|------------------------------x-------x-------x--------|
B|---0--0--0--0--0--0--0--0--3--x-3--3--x-3--3--x--3-----|
G|--0--0--0--0--0--0--0--0---0--x-0--0--x-0--0--x--0-----|  x2
D|-5--4--2--0--2--0-------------x-------x-------x--0-----|
A|-------------------3--2---3---x---2---x---3---x--------|
E|------------------------------x-------x-------x--------|
[ Tab from: http://www.guitartabs.cc/tabs/t/the_icarus_account/favourite_girl_tab.html ]
Its funny how love takes you by surprise
And I just didnít know what I was missiní till you opened my eyes

[pre-chorus riff]

And hey maybe we could stay
Maybe we could lay like this forever

          Cadd9             D
Don't you know she is my favorite girl
         G             Em7
I wanna run away for days with her
          Cadd9          D
And If you promise not to say a thing
           G                Em7
I'm gonna buy that girl a diamond ring

       C   D          G  D Em7
I said ooooo I think I love you
C   D             G D Em7
Ooooo I think I love you
  D    C
I love you
              C   D    G
My favorite girl

C    D    G
Ooooohhh
           C    D    G
Were in love love love
          C    D    G
Were in love love love
         C    D    Em   D    C
Were in love love love love love

            Cadd9             D
And does she know she is my favorite girl
         G             Em7
I wanna run away for days with her
          Cadd9          D
And If you promise not to say a thing
           G        D       Em7
I'm gonna buy that girl a diamond ring

       C   D          G  D Em7
I said ooooo I think I love you
C   D             G D Em7
Ooooo I think I love you


          Cadd9             D
Don't you know she is my favorite girl
         G             Em7
I wanna run away for days with her
          Cadd9          D
And If you promise not to say a thing
           G        D       Em7
I'm gonna buy that girl a diamond ring


       C   D          G  D Em7
I said ooooo I think I love you
C   D             G D Em7
Ooooo I think I love you
  D    C
I love you

My favorite girl

[intro riff 1x]