The Honorary Title - Everything I Once Had Chords & Tabs

 

Everything I Once Had Chords & Tabs

The Honorary Title Chords & Tabs

Version: 1 Type: Tab 0 ratings
1 star 2 stars 3 stars 4 stars 5 stars
comments

Everything I Once Had Tab

   
-------------------------------------------------------------------------------
			     Everything I Once had - The Honorary Title
-------------------------------------------------------------------------------
Tabbed by: Peyton
Email: LittleYellowbox@gmail.com

Tuning: DROP D!!!!!!!

Intro
e|-------------------------------------------------------------------------------|
B|-------------------------------------------------------------------------------|
G|-------------------------------------------------------------------------------|
D|-------------------------------------------------------------------------------|
A|2------------------------------------------------------------------------------|
E|-5-7---------------------------------------------------------------------------|

e|-------------------------------------------------------------------------------|
B|-------------------------------------------------------------------------------|
G|-------------------------------------------------------------------------------|
D|-------------------------------------------------------------------------------|
A|2------------------------------------------------------------------------------|
E|-0-5---------------------------------------------------------------------------|
[ Tab from: http://www.guitartabs.cc/tabs/t/the_honorary_title/everything_i_once_had_tab.html ]
Verse
e|---------------------|
B|---------------------|
G|---------------------|
D|---------------------|
A|-2222----------------|
E|-----0000-5555-2222--|

The Part at the end of the verses
e|-------------------------------------------------------------------------------|
B|-------------------------------------------------------------------------------|
G|-------------------------------------------------------------------------------|
D|2---5--------------------------------------------------------------------------|
A|2---5--------------------------------------------------------------------------|
E|2---5--------------------------------------------------------------------------|

Big Screamy part at the end
e|--------------------------------------------------------------------------------|
B|--------------------------------------------------------------------------------|
G|-4--2---------------------------------------------------------------------------|
D|-4--0--5------------------------------------------------------------------------|
A|-2--0--5------------------------------------------------------------------------|
E|----0--5------------------------------------------------------------------------|

This is my first tab!

| /  slide up
| \  slide down
| h  hammer-on
| p  pull-off
| ~  vibrato
| +  harmonic
| x  Mute note
===============================================================================
Comments