The Honorary Title - Bridge And Tunnel Chords & Tabs

 

Bridge And Tunnel Chords & Tabs

The Honorary Title Chords & Tabs

Version: 1 Type: Tab 0 ratings
1 star 2 stars 3 stars 4 stars 5 stars
comments

Bridge And Tunnel Tab

Song:   Bridge and Tunnel
Artist: Honorary Title
Album:  Anything Else But The Truth
Tabber: Mychael Jones

I believe the chords are A and E... this is just a guess, and i think im way off. but
heres the catchy little guitar riff played over and over through out most the song.
[ Tab from: http://www.guitartabs.cc/tabs/t/the_honorary_title/bridge_and_tunnel_tab.html ]
Intro
E|4--4--420-4--4--97--------------|
A|--5--5------5--5--9-------------|
D|-6--6------6--6-----------------|
G|--------------------------------|
B|--------------------------------|
E|--------------------------------|

you could also do:
E|4--4--4---4--4--97--------------|
A|--5--5-75---5--5--9-------------|
D|-6--6------6--6-----------------|
G|--------------------------------|
B|--------------------------------|
E|--------------------------------|
Comments