The Griswolds - Heart Of A Lion Chords & Tabs

 

Heart Of A Lion Chords & Tabs

The Griswolds Chords & Tabs

Version: 1 Type: Bass Tab 0 ratings
1 star 2 stars 3 stars 4 stars 5 stars
comments

Heart Of A Lion Bass Tab

(/) Slide Up  (\) Slide Down  (h) Hammer On  (p) Pull Off  (b) Bend (r) Release (v) Vibrato

This is my first tab. I am not a bassist usually, but this sounds right. If you have any 
questions, comments, corrections, you can get me at phelpsphanatic88@aim.com
Thanks

G|---------------------------------------------------------------------------------------------|
D|---------------------------------------------------11-11-11-11-11-11-11-11\9-9-9-9-9-9-9-9---|
A|-2/9-9-9-9-9-9-9-9-9-9-9-9-9-9-9-9\4-4-4-4-4-4-4-4-------------------------------------------|
E|---------------------------------------------------------------------------------------------|

G|-------------------------------------------------|
D|-9-9-9-9-9-9-9-9---------------------------------|
A|-----------------6-6-6-6-6-6-6-6-----------------|
E|---------------------------------6-6-6-6-4-4-4-4-|
[ Tab from: http://www.guitartabs.cc/tabs/t/the_griswolds/heart_of_a_lion_btab.html ]
G|---------------------------------------------------------------------------------------------|
D|---------------------------------------------------11-11-11-11-11-11-11-11\9-9-9-9-9-9-9-9---|
A|-2/9-9-9-9-9-9-9-9-9-9-9-9-9-9-9-9\4-4-4-4-4-4-4-4-------------------------------------------|
E|---------------------------------------------------------------------------------------------|

G|-----------------------------------|
D|-9-9-9-9-9-9-9-9-------------------|
A|-----------------6-6-6-6-6-6-6-6---|
E|---------------------------------6-|

G|-----------------------------------------------------------------------------------|
D|-----------6--6--6-----------------4--6--4-----------------------------------------|
A|--2--2--2-----------6--6--6--4--6-----------6--4--2--2--2--2--2--2--2--2--2--2-----|
E|-----------------------------------------------------------------------------------|

G|-----------------------------------------------------------|
D|--4--4--4--4--4--4--4--4--4--4-----------1--1--1--4--4--4--|
A|--------------------------------2--2--2--------------------|
E|-----------------------------------------------------------|
Comments