The Greenhornes - Lies Chords & Tabs

 

Lies Chords & Tabs

The Greenhornes Chords & Tabs

Version: 1 Type: Tab

Lies Tab

   
-------------------------------------------------------------------------------
			     LIES - The Greenhornes
-------------------------------------------------------------------------------
Tabbed by:Vi
Email: pistol.of.fire@gmail.com


intro

e|---------------------------------------------------------------------------|
B|---------------------------------------------------------------------------|
G|---------------------------------------------------------------------------|
D|---------------------------------------------------------------------------|
A|-------1--1/3-3-------------1--1/3-3---------------------------------------|
E|---3--3--------1-1/0----3--3---------1-1/0---------------------------------|
[ Tab from: http://www.guitartabs.cc/tabs/t/the_greenhornes/lies_tab.html ]
verse:
e|---------------------------------------------------------------------------|
B|---------------------------------------------------------------------------|
G|-------3--3-5--5-----------------------------------------------------------|
D|--5--5-3--3/5--5--3-3------------------------------------------------------|
A|--5--5-1--1-3--3--3-3------------------------------------------------------|
E|--3--3------------1-1/0----------------------------------------------------|

keeps repeating

chorus:

e|--------------------------------------------------|
B|--------------------------------------------------|
G|--5-----5-----------------5-----5-----7--7--7--7--|
D|--5-----5----5------5-----5-----5-----7--7--7--7--|
A|--3-----3----5------5-----3-----3-----5--5--5--5--|
E|-------------3------3-----------------------------|

back to the beginning and you know how it goes.


| /  slide up
|   slide down
| h  hammer-on
| p  pull-off
| ~  vibrato
| +  harmonic
| x  Mute note
===============================================================================