The Greenhornes - High Time Baby Chords & Tabs

 

High Time Baby Chords & Tabs

The Greenhornes Chords & Tabs

Version: 1 Type: Tab 0 ratings
1 star 2 stars 3 stars 4 stars 5 stars
comments

High Time Baby Tab

Artist: The Greenhornes
Song: High Time Baby

Standard Tuning

Intro/Verse
||---------------------------------------------------------------------------|
||---------------------------------------------------------------------------|
||---------------------------------------------------------------------------|
||----------------------------1-3-3-1----------------------------3-5-5-3-----|
||-------1-3-3-1--(x3)---3--3---------3--------1-3-3-1------5--5---------3---|
||--3--3---------3------------------------3--3---------3---------------------|
[ Tab from: http://www.guitartabs.cc/tabs/t/the_greenhornes/high_time_baby_tab.html ]
Chorus
|-----------------------------------------------------------------|
|-----------------------------------------------------------------|
|--4--4-4--5--5-5------------------10--10--10--4--4-4--5--5-5-----|
|--5--5-5--5--5-5-(x4)-10--10--10--10--10--10--5--5-5--5--5-5(x2)-|
|--5--5-5--3--3-3------10--10--10---8---8---8--5--5-5--3--3-3-----|
|--3--3-3---------------8---8---8--------------3--3-3-------------|

|-----------------------------------------------------------------|
|-----------------------------------------------------------------|
|---7--7-7--7--7-7------------------------------------------------|
|---7--7-7--5--5-5-5-5-5-5-5----5---5---5---5---------------------|
|---5--5-5---------3-3-3-3-3----3-5-3-5-3-5-3-5-------------------|
|---------------------------------3---3---3---3-------------------|

Song Structure:
Intro/Verse
Chorus
Intro/Verse
Chorus
Organ Solo(use Intro/Verse riff)
Chorus
Intro/Verse
Comments