The Go Team - Huddle Formation Chords & Tabs

 

Huddle Formation Chords & Tabs

The Go Team Chords & Tabs

Version: 1 Type: Tab

Huddle Formation Tab

Huddle Formation
The Go! Team
Tabbed by Jackk


All picking is tremolo.


Verse

E--------------------------------|--------------------------------|
B--------------------------------|--------------------------------|
G-2-----------5---------------7--|---------------10---------------|
D--------------------------------|--------------------------------|
A--------------------------------|--------------------------------|
E--------------------------------|--------------------------------|

E--------------------------------|--------------------------------|
B--------------------------------|--------------------------------|
G-2-----------5---------------7--|---------------5----------------|
D--------------------------------|--------------------------------|
A--------------------------------|--------------------------------|
E--------------------------------|--------------------------------|

E--------------------------------|--------------------------------|
B--------------------------------|--------------------------------|
G-2-----------5---------------7--|---------------10---------------|
D--------------------------------|--------------------------------|
A--------------------------------|--------------------------------|
E--------------------------------|--------------------------------|

E--------------------------------|--------------------------------|
B--------------------------------|--------------------------------|
G-2-----------5---------------7--|---------------5----------------|
D--------------------------------|--------------------------------|
A--------------------------------|--------------------------------|
E--------------------------------|--------------------------------|



Chorus

E--------------------------------|--------------------------------|
B--------------------------------|--------------------------------|
G-7---------------------------10-|--------------------------------|
D--------------------------------|--------------------------------|
A--------------------------------|--------------------------------|
E--------------------------------|--------------------------------|

E--------------------------------|--------------------------------|
B--------------------------------|--------------------------------|
G-12--------------------------10-|--------------------------------|
D--------------------------------|--------------------------------|
A--------------------------------|--------------------------------|
E--------------------------------|--------------------------------|

E--------------------------------|--------------------------------|
B--------------------------------|--------------------------------|
G-7---------------------------10-|--------------------------------|
D--------------------------------|--------------------------------|
A--------------------------------|--------------------------------|
E--------------------------------|--------------------------------|

E--------------------------------|--------------------------------|
B--------------------------------|--------------------------------|
G-12--------------------------10-|--------------------------------|
D--------------------------------|--------------------------------|
A--------------------------------|--------------------------------|
E--------------------------------|--------------------------------|



Solo bit
(MISS THE LAST BAR OFF OF THE CHORUS AND START FROM THE BEGINNING 
OF THIS)
E--------------------------------|--------------------------------|
B--------------------------------|--------------------------------|
G-12-----------------------------|-------------------------10--12-|
D--------------------------------|--------------------------------|
A--------------------------------|--------------------------------|
E--------------------------------|--------------------------------|

E--------------------------------|--------------------------------|
B--------------------------------|--------------------------------|
G-14-----------------------------|------------------12---10---14--|
D--------------------------------|--------------------------------|
A--------------------------------|--------------------------------|
E--------------------------------|--------------------------------|

E--------------------------------|--------------------------------|
B--------------------------------|--------------------------------|
G-12-----------------------------|-----10---------------------7---|
D--------------------------------|--------------------------------|
A--------------------------------|--------------------------------|
E--------------------------------|--------------------------------|
[ Tab from: http://www.guitartabs.cc/tabs/t/the_go_team/huddle_formation_tab.html ]
E--------------------------------|--------------------------------|
B--------------------------------|--------------------------------|
G-5-------10-------5------2------|-5------------------------------|
D--------------------------------|--------------------------------|
A--------------------------------|--------------------------------|
E--------------------------------|--------------------------------|
					    ^
					    ^
					    ^
					    ^
(DO IT AGAIN FROM 14, UNTIL YOU GET TO THIS ^ BAR, AT WHICH POINT 
DO THIS INSTEAD:)

E--------------------------------|--------------------------------|
B--------------------------------|--------------------------------|
G-5-----------9------------------|-10-----------12----------------|
D--------------------------------|--------------------------------|
A--------------------------------|--------------------------------|
E--------------------------------|--------------------------------|

E--------------------------------|--------------------------------|
B--------------------------------|--------------------------------|
G-5------------------------------|--------------------------------|
D--------------------------------|--------------------------------|
A--------------------------------|--------------------------------|
E--------------------------------|--------------------------------|

E--------------------------------|--------------------------------|
B--------------------------------|--------------------------------|
G------------------------------7-|--------------5-----------------|
D--------------------------------|--------------------------------|
A--------------------------------|--------------------------------|
E--------------------------------|--------------------------------|

THEN go back to the verse bit for 4 bars, then do the chorus a few 
times but with the 12 held on at the end like at the start of the 
solo, and then it's on to THIS twice:

E--------------------------------|--------------------------------|
B--------------------------------|--------------------------------|
G-10-----------------------------|--------------------------------|
D--------------------------------|--------------------------------|
A--------------------------------|--------------------------------|
E--------------------------------|--------------------------------|

E--------------------------------|--------------------------------|
B--------------------------------|--------------------------------|
G-9-------------------10---------|--------------------------------|
D--------------------------------|--------------------------------|
A--------------------------------|--------------------------------|
E--------------------------------|--------------------------------|


and finally this!

E--------------------------------|--------------------------------|
B--------------------------------|--------------------------------|
G-5------------------------------|--------------------------------|
D--------------------------------|--------------------------------|
A--------------------------------|--------------------------------|
E--------------------------------|--------------------------------|

E--------------------------------|--------------------------------|
B--------------------------------|--------------------------------|
G--------------------------------|------------------------------0-|
D--------------------------------|--------------------------------|
A--------------------------------|--------------------------------|
E--------------------------------|--------------------------------|

E--------------------------------|--------------------------------|
B--------------------------------|--------------------------------|
G-5------------------------------|------------------------------0-|
D--------------------------------|--------------------------------|
A--------------------------------|--------------------------------|
E--------------------------------|--------------------------------|

E--------------------------------|--------------------------------|
B--------------------------------|--------------------------------|
G-5------------------------------|---------------7----------------|
D--------------------------------|--------------------------------|
A--------------------------------|--------------------------------|
E--------------------------------|--------------------------------|

E-------------------------------||
B-------------------------------||
G-5-----------------------------||
D-------------------------------||
A-------------------------------||
E-------------------------------||

Sorry about the jumping around, I guess there might have been a 
better way to tab it, but hopefully it's not too hard to follow! 
Enjoy!