The Go-gos - We Got The Beat Chords & Tabs

 

We Got The Beat Chords & Tabs

The Go-gos Chords & Tabs

Version: 1 Type: Bass Tab 0 ratings
1 star 2 stars 3 stars 4 stars 5 stars
comments

We Got The Beat Bass Tab

   
Song: We Got the Beat
Artist: The Go-Gos   
Tabbed by: Gregg (yor123@bellsouth.net)

This is tuned to sharp of 440


    verse
                        (x4)                   (x10)                     (x2)

     e  e  e  e  e  e  e  e    e  e e q  e  e   e    q  q  q  q  q  q  q  q   
G |--------------------------|---------------------|------------------------|
D |-------------------------*|--------5--7--5-----*|-----------------------*|
A |-------------------------*|------7-----------7-*|-----------------------*|
E |--5--5--5--5--5--5--5--5--|-5--5----------------|-5--5--5--5--5--5--5--5-|

    chorus
                                                                    
|   h  e  e  e  e   h  e  e  e  e   q  e  e  e  e   h  e  e  e  e
G |---------------|---------------|---------------|-----------------|
D |---------------|-5--5--5--5--5-|-3--3--3--3--3-|-----------------|
A |-5--5--5--5--5-|---------------|---------------|-3--3--3--3--3---|
E |---------------|---------------|---------------|-----------------|


   Repeat verse
   Repeat Chorus
[ Tab from: http://www.guitartabs.cc/tabs/t/the_go_gos/we_got_the_beat_btab.html ]
   Guitar Solo
                        (x2)                   (x2)
     e  e  e  e  e  e  e  e   e  e  e  e  e  e  e  e 
G |-------------------------|------------------------|
D |------------------------*|-- ----------5--5--7--7-|
A |------------------------*|-------7--7-------------|
E |--5--5--5--5--5--5--5--5-|-5--5-------------------|
>                                                 
|                                   (both measures x2) 
>                                                      
|    e  e  e  e  e  e  e  e   e  e  e  e  e  e  e  e   
G |-------------------------|-5--5--7--7--5--5--------|
D |--------------5--5--7--7-|-------------------7--5-*|
  |--------7--7-------------|------------------------*|
E |--5--5-------------------|-------------------------|
>
  
                                    (both measures x2)
>
|    e  e  e  e  e  e  e  e   e  e  e  e  e  e  e  e
G |-------------------------|-7--7--9--9--7--7--------|
D |--------------7--7--9--9-|-------------------9--7-*|
A |--------9--9-------------|------------------------*|
E |--7--7-------------------|-------------------------|
>                                                 

   Go back to second measure of verse and all of chorus
   End with second measure of verse
Comments