The Glitterati - Here Comes A Close-up Chords & Tabs

 

Here Comes A Close-up Chords & Tabs

The Glitterati Chords & Tabs

Version: 1 Type: Bass Tab 0 ratings
1 star 2 stars 3 stars 4 stars 5 stars
comments

Here Comes A Close-up Bass Tab

   
-------------------------------------------------------------------------------
		       Here comes a close-up - Glitterati
-------------------------------------------------------------------------------

Tabbed By: emorhys
e-mail: rhysbyrom@hotmail.com

Tuning: Standard (GDAE)

Intro:
G|---------|
D|---------|
A|-333-4444|
E|---------|

Verse & Chorus:
G|-------------------------------------------|
D|-------------------------------------------|
A|--------11---------11---------11--333--4444|
E|-333-11-----333-11-----333-11--------------|
[ Tab from: http://www.guitartabs.cc/tabs/t/the_glitterati/here_comes_a_close_up_btab.html ]
Bridge:
G|----------------------------------------------------------------------|
D|--------88--55---------88--55---------88--55--------------------------|
A|-55--88---------55--88---------55--88--------55--88----------333-4444/|
E|----------------------------------------------------3-3333333---------|

Verse
Chorus

Outro:
G|------------------------------------------|--------------------|
D|-----------------------------------------:|--------------------|
A|--------11--------11---------11--333-4444:|-333-4444--333-444--|
E|-333-11----333-11----333--11--------------|-------------------3|
Comments