The Funk Of 40 000 Years - Funkagalactica Chords & Tabs

 

Funkagalactica Chords & Tabs

The Funk Of 40 000 Years Chords & Tabs

Version: 1 Type: Tab 0 ratings
1 star 2 stars 3 stars 4 stars 5 stars
comments

Funkagalactica Tab

Funk of 40,000 years
Funkagalactica


This song rules!!!!!!!!!
Start with the riff...
e|--------------------------------------------------|
B|----3/4------------3/4-----------3/4--------------|
G|----3/4------------3/4-----------3/4--------------|
D|--------------------------------------------------|
A|-2-------2-2-1-0--------0-0-1-2-------0-0-2-1-----|
E|--------------------------------------------------|

Then follow it with the tail...

e|---7-7-5--------------|
B|---7-7---7-6-5--------|
G|---------------7b-4---|
D|----------------------|
A|----------------------|
E|----------------------|

Then repeat the first riff followed by this tail...
[ Tab from: http://www.guitartabs.cc/tabs/t/the_funk_of_40_000_years/funkagalactica_tab.html ]
e|------------5/10-7----|
B|------5-6-7-----------|
G|--4-7-----------------|
D|----------------------|
A|----------------------|
E|----------------------|

Then the chorus is just this:

e|--------------------------------------------------|
B|--------------------------------------------------|
G|-4-x-x-4-x-4-x-x------4-x-x-4-x-4-x-x-7b----------|
D|-4-x-x-4-x-4-x-x-4-7--4-x-x-4-x-4-x-x-7b----------|
A|-2-x-x-2-x-2-x-x-4-7--2-x-x-2-x-2-x-x-5b----------|
E|-----------------2-5------------------------------|

e|--------------------------------------------------|
B|--------------------------------------------------|
G|-4-x-x-4-x-4-x-x------4---------------------------|
D|-4-x-x-4-x-4-x-x-4-7--4---------------------------|
A|-2-x-x-2-x-2-x-x-4-7--2---------------------------|
E|-----------------2-5------------------------------|
                           FUNKAGALACTICA!!!!

and thats the song...cant be arsed to write out the solo!!!
Comments