The Frights - Makeout Point Chords & Tabs

 

Makeout Point Chords & Tabs

The Frights Chords & Tabs

Version: 1 Type: Tab 0 ratings
1 star 2 stars 3 stars 4 stars 5 stars
comments

Makeout Point Tab

Tabbed by: Chris Olson
Date: 5/1/14

Song: Makeout Point
Artist: The Frights
Album: Fur Sure EP

time: 6/8

Use a lot of reverb

Intro/Verse

e|--------2-----------4-----------0-----------2-4-2---------|
B|--------4-----------4-----------0-----------2-2-2---------|
G|--------4-----------4-----------1-----------3-3-3---------|
D|--------4-----------6-----------2-------------------------|
A|--2-----2-----------6-----------2-------------------------|
E|--------------4-----4-----0-----0-----2-------------------|

Chorus

e|--------2-----------4-----------0-----------2-------------|
B|--------4-----------4-----------0-----------2-------------|
G|--------4-----------4-----------1-----------3-------------|
D|--------4-----------6-----------2-----------4-------------|
A|--2-----2-----------6-----------2-----------4-------------|
E|--------------4-----4-----0-----0-----2-----2-------------|

Chorus pt. 2 (last line of second chorus before bridge)
[ Tab from: http://www.guitartabs.cc/tabs/t/the_frights/makeout_point_tab.html ]
e|--------2-----------4-----------0-----2-2-2-2-1-1---------|
B|--------4-----------4-----------0-----2-2-2-2-1-1---------|
G|--------4-----------4-----------1-----3-3-3-3-2-2---------|
D|--------4-----------6-----------2-----4-4-4-4-3-3---------|
A|--2-----2-----------6-----------2-----4-4-4-4-3-3---------|
E|--------------4-----4-----0-----0-----2-2-2-2-1-1---------|

Bridge

e|--0-----0-----0-----0-----2-----2-----2-----2-------------|
B|--0-----0-----0-----0-----2-----2-----2-----2-------------|
G|--1-----1-----1-----1-----3-----3-----3-----3-------------|  3x
D|--2-2-2-2-2-2-2-2-2-2-2-2-4-4-4-4-4-4-4-4-4-4-4-4---------|
A|--2-2-2-2-2-2-2-2-2-2-2-2-4-4-4-4-4-4-4-4-4-4-4-4---------|
E|--0-0-0-0-0-0-0-0-0-0-0-0-2-2-2-2-2-2-2-2-2-2-2-2---------|

Bridge pt. 2 (last line before chorus)

e|--0-----0-----0-----0-----2-2-2-2-2-2-2-------------------|
B|--0-----0-----0-----0-----2-2-2-2-2-2-2-------------------|
G|--1-----1-----1-----1-----3-3-3-3-3-3-3-------------------|
D|--2-2-2-2-2-2-2-2-2-2-2-2-4-4-4-4-4-4-4-------------------|
A|--2-2-2-2-2-2-2-2-2-2-2-2-4-4-4-4-4-4-4-------------------|
E|--0-0-0-0-0-0-0-0-0-0-0-0-2-2-2-2-2-2-2-------------------|

Outro

e|--------2-----------4-----------0-----2-----0-----2-------|
B|--------4-----------4-----------0-----2-----0-----4-------|
G|--------4-----------4-----------1-----3-----1-----4-------|
D|--------4-----------6-----------2-----4-----2-----4-------|
A|--2-----2-----------6-----------2-----4-----2-----2-------|
E|--------------4-----4-----0-----0-----2-----0-------------|


Comments