The Fox - Butterfly Chords & Tabs

 

Butterfly Chords & Tabs

The Fox Chords & Tabs

Version: 1 Type: Tab 0 ratings
1 star 2 stars 3 stars 4 stars 5 stars
comments

Butterfly Tab

#----------------------------------PLEASE NOTE---------------------------------#
#This file is the author's own work and represents their interpretation of the #
#song. You may only use this file for private study, scholarship, or research. #
#------------------------------------------------------------------------------##
Artist: The Fox
Song: Butterfly
Album: For Fox Sake

This is a great song from 60's/70's psychedelic band The Fox. The tab is main melody that runs through the whole song. It sounds 
great so try it even if you've never heard the song before... 

Any suggestions or corrections please email me:

maluspumila@email.com

cheers,
Jonny

Standard tuning

Symbols:

3/4 = slide from 3 to 4
3b4 = bend string on 3rd fret to 4
3h4 = hammer on 3 to 4
4p3 = pull off from 4 to 3
7~~ = hold



e-------0---------------0---------|-------2---------------2---------|-------0---------------0---------|
B-----3---3---3-------3---3---3---|-----3---3---3-------3---3---3---|-----3---3---3-------3---3---3---|
G---0-------0---0---0-------0---0-|---2-------2---2---2-------2---2-|---0-------0---0---0-------0---0-|
D-2---------------2---------------|-0---------------0---------------|-2---------------2---------------|
A---------------------------------|---------------------------------|---------------------------------|
E---------------------------------|---------------------------------|---------------------------------|
[ Tab from: http://www.guitartabs.cc/tabs/t/the_fox/butterfly_tab.html ]
                                                                              *brief pause    *brief pause
e-------2---------------2---------|---------------------------------|-------2h3p2-----------2h3p2-----|
B-----3---3---3-------3---3---3---|-----3-----3---3-----3-----3---3-|-----3-------3-------3-------3---|
G---2-------2---2---2-------2---2-|---0-----0---------0-----0-------|---2-----------2---2-----------2-|
D-0---------------0---------------|-------2---------------0---------|-0---------------0---------------|
A---------------------------------|-3-----------3---2-----------2---|---------------------------------|
E---------------------------------|---------------------------------|---------------------------------|

                                            *brief pause    *brief pause      *brief pause    *brief pause
e---------------------------------|-------2h3p2-----------2h3p2-----|-------2h3p2-----------2h3p2-----|
B-----3-----3---3-----3-----3---3-|-----3-------3-------3-------3---|-----3-------3-------3-------3---|
G---0-----0---------0-----0-------|---2-----------2---2-----------2-|---2-----------2---2-----------2-|
D-------2---------------0---------|-0---------------0---------------|-0---------------0---------------|
A-3-----------3---2-----------2---|---------------------------------|---------------------------------|
E---------------------------------|---------------------------------|---------------------------------|
     


                                            *brief pause    *brief pause    
e---------------------------------|-------2h3p2-----------2h3p2-----|---------------------------------|
B-----3-----3---3-----3-----3---3-|-----3-------3-------3-------3---|-----3-----3---3-----3-----3---3-|
G---0-----0---------0-----0-------|---2-----------2---2-----------2-|---0-----0---------0-----0-------|
D-------2---------------0---------|-0---------------0---------------|-------2---------------0---------|
A-3-----------3---2-----------2---|---------------------------------|-3-----------3---2-----------2---|
E---------------------------------|---------------------------------|---------------------------------|...etc
  
Comments