The Forsaken - The Forsaken Chords & Tabs

 

The Forsaken Chords & Tabs

The Forsaken Chords & Tabs

Version: 1 Type: Tab 0 ratings
1 star 2 stars 3 stars 4 stars 5 stars
comments

The Forsaken Tab

				|THE FORSAKEN|
				~~~~~~~~~~~~~~
                          (Guitars, without solo lead)
			  ~~~~~~~~~~~~~~~~~~~~~~~~~~~~
			       |By John Rushton|
			       ~~~~~~~~~~~~~~~~~
		
		INTRO
		-----
 |----------------------------------------|
 |----------------------------------------|
2|--------0---2--------------0---2--------|	X2
 |------2-------3-2--------2-------3-2----|
 |(pp)0-------------2b-pp0-------------2b-|
 |----------------------------------------|
		
 |----------------------------------------|
 |----------------------------------------|
1|--5-------------------7-----------------|	X2
 |--5-------------------7-----------------|
 |--3-------------------5-----------------|
 |----------------------------------------|
		
 |----------------------------------------|
 |----------------------------------------|
1|----------------------------------------|	X2
 |--9-9-7h9--7-7-5h7--5-5-3h5p3-5-5-3h5---|
 |--7-7-7----5-5-5----3-3-3-----3-3-3-----|
 |----------------------------------------|
		=====
	   	Verse
		-----
 |----------------------------------------|
 |----------------------------------------|
1|----------------------------------------|
 |--9-9-7h9--7-7-5h7--5-5-3h5p3-5-5-3h5---|
 |--7-7-7----5-5-5----3-3-3-----3-3-3-----|
 |----------------------------------------|
 |				          |	X4
 |----------------------------------------|
 |----------------------------------------|
2|--9-9-7h9--7-7-5h7--5-5-3h5p3-5-5-3h5---|
 |--9-9-7h9--7-7-5h7--5-5-3h5p3-5-5-3h5---|
 |--7-7-7----5-5-5----3-3-3-----3-3-3-----|
 |----------------------------------------|
		=====
		Bridge
		-----
 |----------------------------------------|
 |----------------------------------------|
1|----------------------------------------|
 |--2-2-0h2--5-5-3h5--4-4-2h4p2-4-4-2h4---|
 |--0-0-0----3-3-3----2-2-2-----2-2-2-----|
 |----------------------------------------|
 |					  |	X1
 |----------------------------------------|
 |----------------------------------------|
2|--2-2-0h2--5-5-3h5--4-4-2h4p2-4-4-2h4---|
 |--2-2-0h2--5-5-3h5--4-4-2h4p2-4-4-2h4---|
 |--0-0-0----3-3-3----2-2-2-----2-2-2-----|
 |----------------------------------------|
		=====
		Chorus
		-----
 |----------------------------------------|
 |----------------------------------------|
1|----------------------------------------|
 |--2-2--5-5--7-7--7-77-77----------------|
 |--2-2--5-5--7-7--7-77-77----------------|
 |--0-0--3-3--5-5--5-55-55----------------|
 |				          |	X4
 |----------------------------------------|
 |----------------------------------------|
2|----------------------------------------|
 |--2-2--5-5--7-7--7-77-77----------------|
 |--2-2--5-5--7-7--7-77-77----------------|
 |--0-0--3-3--5-5--5-55-55----------------|
		=====
	    	Verse
		-----
 |----------------------------------------|
 |----------------------------------------|
1|----------------------------------------|	X2
 |--9-9-7h9--7-7-5h7--5-5-3h5p3-5-5-3h5---|
 |--7-7-7----5-5-5----3-3-3-----3-3-3-----|
 |----------------------------------------|

 |----------------------------------------|
 |----------------------------------------|
1|----------------------------------------|
 |--9-9-7h9--7-7-5h7--5-5-3h5p3-5-5-3h5---|
 |--7-7-7----5-5-5----3-3-3-----3-3-3-----|
 |----------------------------------------|
 |				          |	X2
 |----------------------------------------|
 |----------------------------------------|
2|--9-9-7h9--7-7-5h7--5-5-3h5p3-5-5-3h5---|
 |--9-9-7h9--7-7-5h7--5-5-3h5p3-5-5-3h5---|
 |--7-7-7----5-5-5----3-3-3-----3-3-3-----|
 |----------------------------------------|
		=====
		Bridge
		-----
 |----------------------------------------|
 |----------------------------------------|
1|----------------------------------------|
 |--2-2-0h2--5-5-3h5--4-4-2h4p2-4-4-2h4---|
 |--0-0-0----3-3-3----2-2-2-----2-2-2-----|
 |----------------------------------------|
 |					  |	X1
 |----------------------------------------|
 |----------------------------------------|
2|--2-2-0h2--5-5-3h5--4-4-2h4p2-4-4-2h4---|
 |--2-2-0h2--5-5-3h5--4-4-2h4p2-4-4-2h4---|
 |--0-0-0----3-3-3----2-2-2-----2-2-2-----|
 |----------------------------------------|
		=====
		Chorus
		-----
 |----------------------------------------|
 |----------------------------------------|
1|----------------------------------------|
 |--2-2--5-5--7-7--7-77-77(2)-------------|
 |--2-2--5-5--7-7--7-77-77(2)-------------|
 |--0-0--3-3--5-5--5-55-55(0)-------------|
 |				          |	X4
 |----------------------------------------|
 |----------------------------------------|
2|----------------------------------------|
 |--2-2--5-5--7-7--7-77-77(2)-------------|
 |--2-2--5-5--7-7--7-77-77(2)-------------|
 |--0-0--3-3--5-5--5-55-55(0)-------------|
		=====
	      Pre-Solo
		-----
 |----------------------------------------|----\
 |----------------------------------------|     \
2|----------------------------------------|      \
 |--2-2-2-2-2-2-2-2-5-5-5-5-5-5-5-5-------|       \
 |--2-2-2-2-2-2-2-2-5-5-5-5-5-5-5-5-------|        \
 |--0-0-0-0-0-0-0-0-3-3-3-3-3-3-3-3-------|         \
P.M   . . . . . . .   . . . . . . .                  X2
 |----------------------------------------|         /
 |----------------------------------------|        /
2|----------------------------------------|       /
 |--7-7-7-7-7-7-7-7-7-7-7-7-7-7-7-7-------|      /
 |--7-7-7-7-7-7-7-7-7-7-7-7-7-7-7-7-------|     /
 |--5-5-5-5-5-5-5-5-5-5-5-5-5-5-5-5-------|----/
P.M   . . . . . . .   . . . . . . .
		=====
		Solo
		-----
 |----------------------------------------|
 |----------------------------------------|
1|----------------------------------------|
 |----------------------------------------|
 |----------------------------------------|
 |----------------------------------------|
 |					  |
 |----------------------------------------|
 |----------------------------------------|
2|----------------------------------------|
 |--2-2-2-2-2-2-2-2-5-5-5-5-5-5-5-5-------|
 |--2-2-2-2-2-2-2-2-5-5-5-5-5-5-5-5-------|
 |--0-0-0-0-0-0-0-0-3-3-3-3-3-3-3-3-------|
P.M   . . . . . . .   . . . . . . .         

 |----------------------------------------|
 |----------------------------------------|
1|----------------------------------------|
 |----------------------------------------|
 |----------------------------------------|
 |----------------------------------------|
 |					  |
 |----------------------------------------|
 |----------------------------------------|
2|----------------------------------------|
 |--7-7-7-7-7-7-7-7-7-7-7-7-7-7-7-7-------|
 |--7-7-7-7-7-7-7-7-7-7-7-7-7-7-7-7-------|
 |--5-5-5-5-5-5-5-5-5-5-5-5-5-5-5-5-------|
P.M   . . . . . . .   . . . . . . .

 |----------------------------------------|
 |----------------------------------------|
1|----------------------------------------|
 |----------------------------------------|
 |----------------------------------------|
 |----------------------------------------|
 |					  |
 |----------------------------------------|
 |----------------------------------------|
2|----------------------------------------|
 |--2-2-2-2-2-2-2-2-5-5-5-5-5-5-5-5-------|
 |--2-2-2-2-2-2-2-2-5-5-5-5-5-5-5-5-------|
 |--0-0-0-0-0-0-0-0-3-3-3-3-3-3-3-3-------|
P.M   . . . . . . .   . . . . . . .         

 |----------------------------------------|
 |----------------------------------------|
1|----------------------------------------|
 |----------------------------------------|
 |----------------------------------------|
 |----------------------------------------|
 |					  |
 |----------------------------------------|
 |----------------------------------------|
2|----------------------------------------|
 |--7-7-7-7-7-7-7-7-7-7-7-7-7-7-7-7-------|
 |--7-7-7-7-7-7-7-7-7-7-7-7-7-7-7-7-------|
 |--5-5-5-5-5-5-5-5-5-5-5-5-5-5-5-5-------|
P.M   . . . . . . .   . . . . . . .

 |----------------------------------------|
 |----------------------------------------|
1|----------------------------------------|
 |----------------------------------------|
 |----------------------------------------|
 |----------------------------------------|
 |					  |
 |----------------------------------------|
 |----------------------------------------|
2|----------------------------------------|
 |--2-2-2-2-2-2-2-2-5-5-5-5-5-5-5-5-------|
 |--2-2-2-2-2-2-2-2-5-5-5-5-5-5-5-5-------|
 |--0-0-0-0-0-0-0-0-3-3-3-3-3-3-3-3-------|
P.M   . . . . . . .   . . . . . . .         

 |----------------------------------------|
 |----------------------------------------|
1|----------------------------------------|
 |----------------------------------------|
 |----------------------------------------|
 |----------------------------------------|
 |					  |
 |----------------------------------------|
 |----------------------------------------|
2|----------------------------------------|
 |--7-7-7-7-7-7-7-7-7-7-7-7-7-7-7-7-------|
 |--7-7-7-7-7-7-7-7-7-7-7-7-7-7-7-7-------|
 |--5-5-5-5-5-5-5-5-5-5-5-5-5-5-5-5-------|
P.M   . . . . . . .   . . . . . . .

 |----------------------------------------|
 |----------------------------------------|
1|----------------------------------------|
 |----------------------------------------|
 |----------------------------------------|
 |----------------------------------------|
 |					  |
 |----------------------------------------|
 |----------------------------------------|
2|----------------------------------------|
 |--2-2-2-2-2-2-2-2-5-5-5-5-5-5-5-5-------|
 |--2-2-2-2-2-2-2-2-5-5-5-5-5-5-5-5-------|
 |--0-0-0-0-0-0-0-0-3-3-3-3-3-3-3-3-------|
P.M   . . . . . . .   . . . . . . .         

 |----------------------------------------|
 |----------------------------------------|
1|----------------------------------------|
 |----------------------------------------|
 |----------------------------------------|
 |----------------------------------------|
 |					  |
 |----------------------------------------|
 |----------------------------------------|
2|----------------------------------------|
 |--7-7-7-7-7-7-7-7-7-7-7-7-7-7-7-7-------|
 |--7-7-7-7-7-7-7-7-7-7-7-7-7-7-7-7-------|
 |--5-5-5-5-5-5-5-5-5-5-5-5-5-5-5-5-------|
P.M   . . . . . . .   . . . . . . .

 |----------------------------------------|
 |----------------------------------------|
1|----------------------------------------|
 |----------------------------------------|
 |----------------------------------------|
 |----------------------------------------|
 |					  |
 |----------------------------------------|
 |----------------------------------------|
2|----------------------------------------|
 |--2-2-2-2-2-2-2-2-5-5-5-5-5-5-5-5-------|
 |--2-2-2-2-2-2-2-2-5-5-5-5-5-5-5-5-------|
 |--0-0-0-0-0-0-0-0-3-3-3-3-3-3-3-3-------|
P.M   . . . . . . .   . . . . . . .         
[ Tab from: http://www.guitartabs.cc/tabs/t/the_forsaken/the_forsaken_tab.html ]
 |----------------------------------------|
 |----------------------------------------|
1|----------------------------------------|
 |----------------------------------------|
 |----------------------------------------|
 |----------------------------------------|
 |					  |
 |----------------------------------------|
 |----------------------------------------|
2|----------------------------------------|
 |--7-7-7-7-7-7-7-7-7-7-7-7-7-7-7-7-------|
 |--7-7-7-7-7-7-7-7-7-7-7-7-7-7-7-7-------|
 |--5-5-5-5-5-5-5-5-5-5-5-5-5-5-5-5-------|
P.M   . . . . . . .   . . . . . . .

 |----------------------------------------|
 |----------------------------------------|
1|----------------------------------------|
 |----------------------------------------|
 |----------------------------------------|
 |----------------------------------------|
 |					  |
 |----------------------------------------|
 |----------------------------------------|
2|----------------------------------------|
 |--2-2-2-2-2-2-2-2-5-5-5-5-5-5-5-5-------|
 |--2-2-2-2-2-2-2-2-5-5-5-5-5-5-5-5-------|
 |--0-0-0-0-0-0-0-0-3-3-3-3-3-3-3-3-------|
P.M   . . . . . . .   . . . . . . .         

 |----------------------------------------|
 |----------------------------------------|
1|----------------------------------------|
 |----------------------------------------|
 |----------------------------------------|
 |----------------------------------------|
 |					  |
 |----------------------------------------|
 |----------------------------------------|
2|----------------------------------------|
 |--7-7-7-7-7-7-7-7-7-7-7-7-7-7-7-7-------|
 |--7-7-7-7-7-7-7-7-7-7-7-7-7-7-7-7-------|
 |--5-5-5-5-5-5-5-5-5-5-5-5-5-5-5-5-------|
P.M   . . . . . . .   . . . . . . .

 |----------------------------------------|
 |----------------------------------------|
1|----------------------------------------|
 |----------------------------------------|
 |----------------------------------------|
 |----------------------------------------|
 |					  |
 |----------------------------------------|
 |----------------------------------------|
2|----------------------------------------|
 |--2-2-2-2-2-2-2-2-5-5-5-5-5-5-5-5-------|
 |--2-2-2-2-2-2-2-2-5-5-5-5-5-5-5-5-------|
 |--0-0-0-0-0-0-0-0-3-3-3-3-3-3-3-3-------|
P.M   . . . . . . .   . . . . . . .         

 |----------------------------------------|
 |----------------------------------------|
1|----------------------------------------|
 |----------------------------------------|
 |----------------------------------------|
 |----------------------------------------|
 |					  |
 |----------------------------------------|
 |----------------------------------------|
2|----------------------------------------|
 |--7-7-7-7-7-7-7-7-7-7-7-7-7-7-7-7-------|
 |--7-7-7-7-7-7-7-7-7-7-7-7-7-7-7-7-------|
 |--5-5-5-5-5-5-5-5-5-5-5-5-5-5-5-5-------|
P.M   . . . . . . .   . . . . . . .

 |----------------------------------------|
 |----------------------------------------|
1|----------------------------------------|
 |----------------------------------------|
 |----------------------------------------|
 |----------------------------------------|
 |					  |
 |----------------------------------------|
 |----------------------------------------|
2|----------------------------------------|
 |--2-2-2-2-2-2-2-2-5-5-5-5-5-5-5-5-------|
 |--2-2-2-2-2-2-2-2-5-5-5-5-5-5-5-5-------|
 |--0-0-0-0-0-0-0-0-3-3-3-3-3-3-3-3-------|
P.M   . . . . . . .   . . . . . . .         

 |----------------------------------------|
 |----------------------------------------|
1|----------------------------------------|
 |----------------------------------------|
 |----------------------------------------|
 |----------------------------------------|
 |					  |
 |----------------------------------------|
 |----------------------------------------|
2|----------------------------------------|
 |--7-7-7-7-7-7-7-7-7-7-7-7-7-7-7-7-------|
 |--7-7-7-7-7-7-7-7-7-7-7-7-7-7-7-7-------|
 |--5-5-5-5-5-5-5-5-5-5-5-5-5-5-5-5-------|
P.M   . . . . . . .   . . . . . . .

 |----------------------------------------|
 |----------------------------------------|
1|----------------------------------------|
 |----------------------------------------|
 |----------------------------------------|
 |----------------------------------------|
 |					  |
 |----------------------------------------|
 |----------------------------------------|
2|----------------------------------------|
 |--2-2-2-2-2-2-2-2-5-5-5-5-5-5-5-5-------|
 |--2-2-2-2-2-2-2-2-5-5-5-5-5-5-5-5-------|
 |--0-0-0-0-0-0-0-0-3-3-3-3-3-3-3-3-------|
P.M   . . . . . . .   . . . . . . .         

 |----------------------------------------|
 |----------------------------------------|
1|----------------------------------------|
 |----------------------------------------|
 |----------------------------------------|
 |----------------------------------------|
 |					  |
 |----------------------------------------|
 |----------------------------------------|
2|----------------------------------------|
 |--7-7-7-7-7-7-7-7-7-7-7-7-7-7-7-7-------|
 |--7-7-7-7-7-7-7-7-7-7-7-7-7-7-7-7-------|
 |--5-5-5-5-5-5-5-5-5-5-5-5-5-5-5-5-------|
P.M   . . . . . . .   . . . . . . .

 |----------------------------------------|
 |----------------------------------------|
1|----------------------------------------|
 |----------------------------------------|
 |----------------------------------------|
 |----------------------------------------|
 |					  |
 |----------------------------------------|
 |----------------------------------------|
2|----------------------------------------|
 |--2-2-2-2-2-2-2-2-5-5-5-5-5-5-5-5-------|
 |--2-2-2-2-2-2-2-2-5-5-5-5-5-5-5-5-------|
 |--0-0-0-0-0-0-0-0-3-3-3-3-3-3-3-3-------|
P.M   . . . . . . .   . . . . . . .         

 |----------------------------------------|
 |----------------------------------------|
1|----------------------------------------|
 |----------------------------------------|
 |----------------------------------------|
 |----------------------------------------|
 |					  |
 |----------------------------------------|
 |----------------------------------------|
2|----------------------------------------|
 |--7-7-7-7-7-7-7-7-7-7-7-7-7-7-7-7-------|
 |--7-7-7-7-7-7-7-7-7-7-7-7-7-7-7-7-------|
 |--5-5-5-5-5-5-5-5-5-5-5-5-5-5-5-5-------|
P.M   . . . . . . .   . . . . . . .

 |----------------------------------------|
 |----------------------------------------|
1|----------------------------------------|
 |----------------------------------------|
 |----------------------------------------|
 |----------------------------------------|
 |					  |
 |----------------------------------------|
 |----------------------------------------|
2|----------------------------------------|
 |--2-2-2-2-2-2-2-2-5-5-5-5-5-5-5-5-------|
 |--2-2-2-2-2-2-2-2-5-5-5-5-5-5-5-5-------|
 |--0-0-0-0-0-0-0-0-3-3-3-3-3-3-3-3-------|
P.M   . . . . . . .   . . . . . . .         

 |----------------------------------------|
 |----------------------------------------|
1|----------------------------------------|
 |----------------------------------------|
 |----------------------------------------|
 |----------------------------------------|
 |					  |
 |----------------------------------------|
 |----------------------------------------|
2|----------------------------------------|
 |--7-7-7-7-7-7-7-7-7-7-7-7-7-7-7-7-------|
 |--7-7-7-7-7-7-7-7-7-7-7-7-7-7-7-7-------|
 |--5-5-5-5-5-5-5-5-5-5-5-5-5-5-5-5-------|
P.M   . . . . . . .   . . . . . . .
		=====
	      Post-Solo
		-----
 |----------------------------------------|
 |----------------------------------------|
1|----------------------------------------|
 |--2-2-2-2-2-2-2-2-5-5-5-5-5-5-5-5-------|
 |--2-2-2-2-2-2-2-2-5-5-5-5-5-5-5-5-------|
 |--0-0-0-0-0-0-0-0-3-3-3-3-3-3-3-3-------|
P.M   . . . . . . .   . . . . . . .	  |
 |----------------------------------------|
 |----------------------------------------|
2|----------------------------------------|
 |--2-2-2-2-2-2-2-2-5-5-5-5-5-5-5-5-------|
 |--2-2-2-2-2-2-2-2-5-5-5-5-5-5-5-5-------|
 |--0-0-0-0-0-0-0-0-3-3-3-3-3-3-3-3-------|
P.M   . . . . . . .   . . . . . . .

 |----------------------------------------|
 |----------------------------------------|
1|----------------------------------------|
 |--7-7-7-7-7-7-7-7-7-7-7-7-7-7-7-7-------|
 |--7-7-7-7-7-7-7-7-7-7-7-7-7-7-7-7-------|
 |--5-5-5-5-5-5-5-5-5-5-5-5-5-5-5-5-------|
P.M   . . . . . . .   . . . . . . .       |
 |----------------------------------------|
 |----------------------------------------|
2|----------------------------------------|
 |--7-7-7-7-7-7-7-7-7-7-7-7-7-7-7-7-------|
 |--7-7-7-7-7-7-7-7-7-7-7-7-7-7-7-7-------|
 |--5-5-5-5-5-5-5-5-5-5-5-5-5-5-5-5-------|
P.M   . . . . . . .   . . . . . . .       

 |----------------------------------------|
 |----------------------------------------|
1|----------------------------------------|
 |--2-------------------------------------|
 |--2-------------------------------------|
 |--0-------------------------------------|
 |				          |
 |--------------------------------12~-----|
 |----------------------------------------|
2|---------9b(10)-(10)rb9-7---------------|
 |--/9-7h9------------------9-------------|
 |----------------------------------------|
 |----------------------------------------|
		=====
		Verse
		-----
 |----------------------------------------|
 |----------------------------------------|
1|----------------------------------------|	X2
 |--9-9-7h9--7-7-5h7--5-5-3h5p3-5-5-3h5---|
 |--7-7-7----5-5-5----3-3-3-----3-3-3-----|
 |----------------------------------------|

 |----------------------------------------|
 |----------------------------------------|
1|----------------------------------------|
 |--9-9-7h9--7-7-5h7--5-5-3h5p3-5-5-3h5---|
 |--7-7-7----5-5-5----3-3-3-----3-3-3-----|
 |----------------------------------------|
 |				          |	X2
 |----------------------------------------|
 |----------------------------------------|
2|--9-9-7h9--7-7-5h7--5-5-3h5p3-5-5-3h5---|
 |--9-9-7h9--7-7-5h7--5-5-3h5p3-5-5-3h5---|
 |--7-7-7----5-5-5----3-3-3-----3-3-3-----|
 |----------------------------------------|
		=====
		Outro
		-----
 |----------------------------------------|
 |----------------------------------------|
1|----------------------------------------|
 |--9---9---7-h-9---7---7---5-h-7---5-----|
 |--7---7---7-------5---5---5-------3-----|
 |----------------------------------------|
 |					  |
 |----------------------------------------|
 |----------------------------------------|
2|--9---9---7-h-9---7---7---5-h-7---5-----|
 |--9---9---7-h-9---7---7---5-h-7---5-----|
 |--7---7---7-------5---5---5-------3-----|
 |----------------------------------------|

 |----------------------------------------|
 |----------------------------------------|
1|----------------------------------------|
 |--2-------------------------------------|
 |--2-------------------------------------|
 |--0-------------------------------------|
		=====
Comments