The Forecast - These Lights Chords & Tabs

 

These Lights Chords & Tabs

The Forecast Chords & Tabs

Version: 2 Type: Tab

These Lights Tab

   
-------------------------------------------------------------------------------
			     These Lights by The Forecast
-------------------------------------------------------------------------------
Tabbed by: Mary
Email: burnquist at gmail dot com

Tuning: Standard

Listen for chord changes.  They are quite easy to hear.
They happen about the end of each line.
i.e. - Em(Have you ever seen)
       G (Stars like these)
       D (With a night like this, wish it could last for weeks)
Verse:

e|---------3----2--------------------------------------------------------------|
B|---------3----3--------------------------------------------------------------|
G|---------0----2--------------------------------------------------------------|
D|----2----0----0--------------------------------------------------------------|
A|----2----2-------------------------------------------------------------------|
E|---------3-------------------------------------------------------------------|
[ Tab from: http://www.guitartabs.cc/tabs/t/the_forecast/these_lights_tab_ver_2.html ]
Chorus:
    (walkdown)                    (walkdown)   
e|----8----7------5-----------------8----7------5-------------------------------------|
B|----8----7------5-----------------8----7------5-------------------------------------|
G|----8----7------5-----------------8----7------7-------------------------------------|
D|----10---10-----7-----------------10---10-----7-------------------------------------|
A|----10---10-----7-----------------10---10-----5-------------------------------------|
E|----8----7------5-----------------8----7------5-------------------------------------|

Outro:

e|----1----3----5---------------------------------------------------------------|
B|----1----3----5---------------------------------------------------------------|
G|----1----3----5---------------------------------------------------------------|
D|----3----5----7---------------------------------------------------------------|
A|----3----5----7---------------------------------------------------------------|
E|----1----3----5---------------------------------------------------------------|

Order:
Verse
Verse
Chorus
Chorus
Verse
Verse
Verse
Verse
Chorus
Chorus
Chorus
Chorus (the first half of it)
Outro
Outro
Outro
Outro
Outro (each chord strummed once)


| /  slide up
| \  slide down
| h  hammer-on
| p  pull-off
| ~  vibrato
| +  harmonic
| x  Mute note
===============================================================================