The Forecast - These Lights Chords & Tabs

 

These Lights Chords & Tabs

The Forecast Chords & Tabs

Version: 1 Type: Tab

These Lights Tab

   
Sorry I couldn't get the outro correct so I am substituting.  
The Outro sounds good on an acoustic guitar, but I don't think it is right.


In the verse part of the song you will use the E minor chord, the G chord, and D chord.
For the the Chorus you will subtract the E minor chord and substitute the C chord.

----------------------------------------------------------------------------
			     These Lights - The Forecast                   
--------------------------------------------------------------------------
Tabbed by:  TheKarateKid / Jeordan 
Email: fifthgate@yahoo.com

Tuning: Standard
[ Tab from: http://www.guitartabs.cc/tabs/t/the_forecast/these_lights_tab.html ]
VERSE
e|--------------3--------3---------------------------------------------------|
B|-----------------------2---------------------------------------------------|
G|-----------------------3---------------------------------------------------|
D|----2----------------------------------------------------------------------|
A|----2---------2------------------------------------------------------------|
E|--------------3------------------------------------------------------------|
CHORUS
e|--------1-------3----------------------------------------------------------|
B|---1------------2----------------------------------------------------------|
G|----------------3----------------------------------------------------------|
D|---2-----------------------------------------------------------------------|
A|---3----2------------------------------------------------------------------|
E|--------3------------------------------------------------------------------|
OUTRO
e|---------------------------------------------------------------------------|
B|---------------------------------------------------------------------------|
G|---------------------------------------------------------------------------|
D|---------------------------------------------------------------------------|
A|---3--------5------7-------------------------------------------------------|
E|---3--------5------7-------------------------------------------------------|


The Forecast is signed on Victory Records.  For Further information visit www.the-forecast.net.  


| /  slide up
| \  slide down
| h  hammer-on
| p  pull-off
| ~  vibrato
| +  harmonic
| x  Mute note
===============================================================================