The Fiery Furnaces - Inca Rag Name Game Chords & Tabs

 

Inca Rag Name Game Chords & Tabs

The Fiery Furnaces Chords & Tabs

Version: 1 Type: Tab 0 ratings
1 star 2 stars 3 stars 4 stars 5 stars
comments

Inca Rag Name Game Tab

   
-------------------------------------------------------------------------------
		             Inca Rag/Name Game - The Fiery Furnaces
-------------------------------------------------------------------------------
Tabbed by: The Valrus
Email:     valrus@bluebottle.com

Tuning:    Standard

/*=================================|Chords|==================================*/

Note: Riffs, solos, and "rags" are detailed in the "Elaboration" section.

Matthew's verses in Inca Rag (first two):

[E rag]
In the Cracker Barrel dumpster I found a bag
Red white striped; I opened it, gagged:

[B rag]                      [A rag]
Mummy day Pizarro dressed in a Inca Rag.

[A]                  [B]            [E]
        Call on into work quick

                  [B]
Tell 'em that I'm seeeeeeea sick.

Eleanor's verses in Inca Rag (second two):

[A rag]
Walking through the market, stop buy some rum and coke;
"Plantains please," my mummy man spoke,

[E rag]                                 [D rag]
"But you'll have to pay 'cause you know dude, I'm broke!"

[D]                         [E]        [A]
        Sittin' outside the sunset;

            [E]
are we in Cadiz yet?


(Transition riff) x4

(Transition riff with power chord riff) x2

Name Game verse:

[A] (with power chord riff)
I was listening to Classic VH when I pulled an H. Singh.
Yeah I drank myself to stupor, ears started to ring.

    [D]                [E]
And I'll go to Finally Al's and type my brains away.

(Verse with slightly mangled power chord riff)

(Verse)

Outro:

[A]        [D]        [E]        [A]
(Solo) x2

(Solo over lyrics)
Penguin,   Moe,       Sal,       Chris.
Penguin,   Moe,       Sal,       Chrissssssss.

/*===============================|Elaboration|===============================*/

    [E rag]           [B rag]            [A rag]

E |------------------------------------------------|
B |----0-----0-----------4-----4-----------2-----2-|
G |----1-----1-----------4-----4-----------2-----2-|
D |----2-----2-----------4-----4-----------2-----2-|
A |-------------------------6-----------------4----|
E |-0-----4-----------7-----------------5----------|


    [A]              [B]      [E]      [B]
[ Tab from: http://www.guitartabs.cc/tabs/t/the_fiery_furnaces/inca_rag_name_game_tab.html ]
E |---------------------------------------|
B |----------2--------4--------0--------4-|
G |----------2--------4--------1--------4-|
D |----------2--------4--------2--------4-|
A |-------------------2-----------------2-|
E |-0--------------------------0----------|


    [A rag]            [E rag]           [D rag]

E |----------------------------------------2-----2-|
B |----2-----2-----------0-----0-----------3-----3-|
G |----2-----2-----------1-----1-----------2-----2-|
D |----2-----2-----------2-----2--------0-----4----|
A |-0-----4----------------------------------------|
E |-------------------0-----4----------------------|


   [D]               [E]      [A]      [E]

E |----------2----------------------------|
B |----------3--------0--------2--------0-|
G |----------2--------1--------2--------1-|
D |-------------------2--------2--------2-|
A |-0-----------------2--------0----------|
E |-------------------------------------0-|

Transition riff:

E |----9-----9-----7-----9-----7--------9-------|
B |----10----10----10----10----10-------10------|
G |----9-----9-----9-----9-----9--------9-------|
D |---------------------------------------------|
A |-0-----------0-----------0-----------0-------|
E |-------9-----------9-----------9-----------9-|

Power chord riff:

E |---------------------------------------------------|
B |---------------------------------------------------|
G |-14-14-14-11----11---------------------------------|
D |-14-14-14-11----11-10/11-7-----7--7--5--7--5-----7-|
A |-12-12-12-9-----9--10/11-7-----7--7--5--7--5-----7-|
E |-------------------8-/9--5-----5--5--3--5--3-----5-|

Solo:

E |---------------------------------------------------------------------------|
B |---------------------------------------------------------------------------|
G |-9-b11----9-b11----9-b11r9--7-h9--9-b11-9----------------------------------|
D |----------------------------------------------7-----7--------7-h9--7-------|
A |-------------------------------------------------------7-h9-----------9--7-|
E |---------------------------------------------------------------------------|

E |---------------------------|
B |---------------------------|
G |---------------------------|
D |---------------------------|
A |----7----------------------|
E |----------7-h9--7-----5----|

Key:

| /  slide up
| \  slide down
| h  hammer-on
| p  pull-off
| B  bend

/*=====================================||=====================================*/
Comments