The Fiery Furnaces - Here Comes The Summer Chords & Tabs

 

Here Comes The Summer Chords & Tabs

The Fiery Furnaces Chords & Tabs

Version: 1 Type: Tab 0 ratings
1 star 2 stars 3 stars 4 stars 5 stars
comments

Here Comes The Summer Tab

   
-------------------------------------------------------------------------------
			     Here Comes The Summer - The Fiery Furnaces
-------------------------------------------------------------------------------
Tabbed by: The Valrus
Email:     valrus@bluebottle.com

Tuning:    Standard

/*==================================|Chords|==================================*/

Verse:

[F]                                       [Am]
Last day in May, the afternoon...         remember?
Black marks off charcoal from the dune... remember?

[Bb]                                      [C]
I thought it wouldn't be too soon;        we'll wait at least until it's June.


Chorus:

[F]                       [Am]
I've been waiting since I don't know when

           [F7]                   [Bb]
And now it finally seems about to start

[Gm]       [F]                     [C]
I swear, I swear that I will do my part

/*===================================|Fills|==================================*/

Verse (synth) and solo:
[ Tab from: http://www.guitartabs.cc/tabs/t/the_fiery_furnaces/here_comes_the_summer_tab.html ]
E |-|---------------------------------------------------------------|
B |-|o----------1-------------------------------------------------o-|
G |-|--3--3--2-----3--2-p0--2--------------2------------------------|
D |-|--------------------------------------------2------------------|
A |-|o-------------------------------------------------3----------o-|
E |-|---------------------------------------------------------------|
       Last day in May, the afternoon...   remember?

E |---------------------------------------------------------------|
B |-------------1-----------------------------------1-------------|
G |----3--3--2-----3--2-p0--2--------------3--3--2-----3--2-p0--2-|
D |---------------------------------------------------------------|
A |---------------------------------------------------------------|
E |---------------------------------------------------------------|
       I thought it wouldn't be too soon;  we'll wait at least...


Chorus (synth):

E |---------------------------------------------------------|
B |---------------------------------------------------------|
G |-------------------0--2--0--------0-----0----------------|
D |----------------------------2--2-----3-----3--2--2--0--3-|
A |----3-p2--2-h3--3----------------------------------------|
E |---------------------------------------------------------|
       I've been waiting since I don't know when...

E |------------------------------------|
B |------------------------------------|
G |------------------------------------|
D |----3--2--0--2--3--2--0--0----------|
A |----------------------------3-------|
E |-------------------------------3----|
       I swear, I swear...


Key:

| /  slide up
| \  slide down
| h  hammer-on
| p  pull-off
| b  bend
/*=====================================||=====================================*/
Comments