The Fiery Furnaces - Evergreen Chords & Tabs

 

Evergreen Chords & Tabs

The Fiery Furnaces Chords & Tabs

Version: 1 Type: Tab 0 ratings
1 star 2 stars 3 stars 4 stars 5 stars
comments

Evergreen Tab

   
-------------------------------------------------------------------------------
			             Evergreen - The Fiery Furnaces
-------------------------------------------------------------------------------
Tabbed by: The Valrus
Email:     valrus@bluebottle.com

Tuning:    Standard

Note: Thanks to brocktoon1 on the Blueberry Boat forum for corrections with
      some of the chords: the F# in the verse and the G# in the chorus.

/*==================================|Chords|==================================*/

Verse:

[E]                        [G#m]
I was wielding my axe,     drunk whiskey at the bar
Every night coming home,   out the windshield of my car

[E]                      [F#]              [A]          [E]       [B]
I would look through the boughs and think I saw my lucky star.

Chorus:

[A]                    [B]   [G#]                       [A]
Needle prick my spruce root, dear little hemlock shoot.

[F#m]              [B]           [E]
Make me stay sharp and keen, evergreen.


/*===================================|Fills|==================================*/

Solo:
[ Tab from: http://www.guitartabs.cc/tabs/t/the_fiery_furnaces/evergreen_tab.html ]
E |------------------------------------------------------------------------|
B |------------------------------------------------------------------------|
G |-8-b9--------8-h9-----8-h9-p8-----8--------------8-h9-----8-h9-p8-----8-|
D |-------------------------------9--------9-\6-----------------------9----|
A |------------------------------------------------------------------------|
E |------------------------------------------------------------------------|

E |-------------------9--11-9-\7--------9--9--11-11-9--15b--|
B |------------/12-12---------------------------------------|
G |-9--12b--------------------------------------------------|
D |---------------------------------------------------------|
A |---------------------------------------------------------|
E |---------------------------------------------------------|


Outro:

       (2x)
E |-|-----------------------------------0--|--------------------2--0--0----|
B |-|o-2--0--2--0-----------2--0--2--0----o|-----2--0--2--0--------------2-|
G |-|--------------0-----------------------|-------------------------------|
D |-|--------------------------------------|-------------------------------|
A |-|o------------------------------------o|-------------------------------|
E |-|--------------------------------------|-------------------------------|

E |-0--0--2--0-----3--4--3--4--------------0--------------------0--|
B |-------------------------------0--2--0-----2--0--2--0--------0--|
G |-------------------------------------------------------0-----1--|
D |----------------------------------------------------------4--2--|
A |-------------------------------------------------------------2--|
E |-------------------------------------------------------------0--|


Key:

| /  slide up
| \  slide down
| h  hammer-on
| p  pull-off
| B  bend
/*=====================================||=====================================*/
Comments