The Features - Situation Gone Bad Chords & Tabs

 

Situation Gone Bad Chords & Tabs

The Features Chords & Tabs

Version: 1 Type: Bass Tab 0 ratings
1 star 2 stars 3 stars 4 stars 5 stars
comments

Situation Gone Bad Bass Tab

   
-------------------------------------------------------------------------------
			     SONG NAME - Band Name
-------------------------------------------------------------------------------

Tabbed By : 
e-mail: 

Tuning:

G|--------|
D|--------| Intro Bass bit
A|--------|
E|--0-4-0-|

G|--------------------------------------------|
D|--------------------------------------------|
A|-----------------------6-6-8-9-8-6--8-8-----|
E|--6-6-8-9-8-6-4-1-1-6-------------------4---| X 4

G|------------------|
D|------------------|
A|--4-4-4-4-4-4-4-4-|
E|------------------| X 2

G|------------------|
D|------------------|
A|-8-8-8-8-8-8-8-8--| X 2
E|------------------|

G|------------------|
D|------------------|
A|-9-9-9-9-9-9-9-9--| X 4
E|------------------|

G|--------------------------------------------|
D|--------------------------------------------|
A|-----------------------6-6-8-9-8-6--8-8-----| X 4
E|--6-6-8-9-8-6-4-1-1-6-------------------4---|

G|------------------|
D|------------------|
A|--4-4-4-4-4-4-4-4-|
E|------------------| X 2

G|------------------|
D|------------------|
A|-8-8-8-8-8-8-8-8--| X 2
E|------------------|

G|------------------|
D|------------------|
A|-9-9-9-9-9-9-9-9--| X 4
E|------------------|

G|------------------|
D|------------------|
A|--4-4-4-4-4-4-4-4-|
E|------------------| X 2

G|------------------|
D|------------------|
A|-8-8-8-8-8-8-8-8--| X 2
E|------------------|
[ Tab from: http://www.guitartabs.cc/tabs/t/the_features/situation_gone_bad_btab.html ]
G|------------------|
D|------------------|
A|-9-9-9-9-9-9-9-9--| X 4
E|------------------|

Bridge

G|------------------------------------------------------------------------------------------------|
D|------------------------------------------------------------------------------------------------|
A|-8--8--8--8--8--8--8--8--------------------------6--6--6--6--6--6--6--6-------------------------|
E|-------------------------6--6--6--6--6--6--6--6--------------------------4--4--4--4--4--4--4--4-|

G|------------------|
D|------------------|
A|--4-4-4-4-4-4-4-4-|
E|------------------| X 2

G|------------------|
D|------------------|
A|-8-8-8-8-8-8-8-8--| X 2
E|------------------|

G|------------------|
D|------------------|
A|-9-9-9-9-9-9-9-9--| X 4
E|------------------|

G|------------------|
D|------------------|
A|--4-4-4-4-4-4-4-4-|
E|------------------| X 2

G|------------------|
D|------------------|
A|-8-8-8-8-8-8-8-8--| X 2
E|------------------|

G|------------------|
D|------------------|
A|-9-9-9-9-9-9-9-9--| X 4
E|------------------|


G|--------------------------------------------|
D|--------------------------------------------|
A|-----------------------6-6-8-9-8-6--8-8-----| X 2
E|--6-6-8-9-8-6-4-1-1-6-------------------4---|

| /  slide up
| \  slide down
| h  hammer-on
| p  pull-off
| ~  vibrato
| +  harmonic
| x  Mute note
===============================================================================
Comments