The Features - Me And The Skirts Chords & Tabs

 

Me And The Skirts Chords & Tabs

The Features Chords & Tabs

Version: 1 Type: Bass Tab 0 ratings
1 star 2 stars 3 stars 4 stars 5 stars
comments

Me And The Skirts Bass Tab

   
-------------------------------------------------------------------------------
			     Me and The Skirts - The Features
-------------------------------------------------------------------------------
Tabbed by: Steven Gladman
Email: stevie.gladman@ntlworld.com

Tuning: E A D G

INTRO 


G|------2---------|
D|----2---0h2-0h2-|
A|--0-------------| X 4
E|----------------|

Bassline (VERSE)
G|---------------------------------------------------------------|
D|---------------------------------------------------------------|
A|----------7-7-----5-8--7--5---------------7-7-----5------------|
E|--5-5-8-8-----8-8-----------8-7---5-5-8-8-----8-8---8-5-0-3-4--| X 2


Bassline (CHORUS)
G|------------------------------------|
D|------------------------------------|
A|-3------------3-4-5-----------------|
E|---0-1-2-3-3--------3-3-4-5-5-7-8---| X 4
[ Tab from: http://www.guitartabs.cc/tabs/t/the_features/me_and_the_skirts_btab.html ]
G|------2---------|
D|----2---0h2-0h2-|
A|--0-------------|
E|----------------| X 3

4th Time 
G|-----2--7/9\0--|
D|---2-----------|
A|-0-------------|
E|---------------|

VERSE

CHORUS

Bridge
G|---------------12h14----12h14---------------12h14---------------------|
D|----------------------------------------------------------------------|
A|-5-7-8-10---0--------0----------5-7-8-10--0--------7-7-7-7-7-7-7-7----|
E|----------------------------------------------------------------------|


G|----------------------------|
D|----------------------------|
A|-3-3--3--------5-5--5-------| 
E|--------3-3--3--------5-5--5| X 2


G|----------------------------------------|
D|---5-------7--------5-------7-----------|
A|-3-----5-5-----7--3-----5-5-------------|
E|-----3-------5--------3-------5--5-5-5--|

CHORUS

Finish on E

| /  slide up
| \  slide down
| h  hammer-on
| p  pull-off
| ~  vibrato
| +  harmonic
| x  Mute note
===============================================================================
Comments