The Features - Dark Room Chords & Tabs

 

Dark Room Chords & Tabs

The Features Chords & Tabs

Version: 1 Type: Tab 0 ratings
1 star 2 stars 3 stars 4 stars 5 stars
comments

Dark Room Tab

   
-------------------------------------------------------------------------------
			   Dark Room - The Features
-------------------------------------------------------------------------------
Tabbed by: Steven Gladman
Email: stevie.gladman@ntlworld.com

Tuning: E A D G B E

Intro/Part i

e|---------------------------------|
B|---------------------------------|
G|---------------------------------|
D|---------------------------------|
A|--------1-2/7--5-7-8-7-5-1-2-1---|
E|-2-3\0---------------------------| X 2 (only in intro)


G, B, E, D, Part i, G, B, E, D, Part i

G, B, E, A    G, B, E, D, C, D, Part i (X 2)

G, B, E, D, Part i, G, B, E, D, Part i

G, B, E, A    G, B, E, D, C, D, G, F#


 			E   A A     E   D D  E  A A  E  D D
"I've got a dirty mind.." 

SOLO
[ Tab from: http://www.guitartabs.cc/tabs/t/the_features/dark_room_tab.html ]
e|----------------------------------3-5-3----|
B|--------------------5p4-5p4-5p4-5----------|
G|--5p4-5p4-5p4-5p4--------------------------|
D|------------------5------------------------|
A|-------------------------------------------| X 2
E|-------------------------------------------|

e|----7-7p6-7p6-7p6-7-10-12-10-15-15p14-15p14-15p14-12-10-7-6----|
B|---------------------------------------------------------------|
G|---------------------------------------------------------------|
D|---------------------------------------------------------------|
A|---------------------------------------------------------------| X 2
E|---------------------------------------------------------------|

Bass coverted to Guitar

e|--------------------------------------------|
B|--------------------------------------------|
G|--------------------------------------------|
D|--------------------------------------------|
A|------2---7---5--------2-2-2-7-7-7-5-5-5----| X 2
E|--3--------------3-3-3----------------------|

e|------------------------|
B|------------------------|
G|------------------------|
D|------------------------|
A|--------2--2--7--7------|
E|--3--3--------------5---|

G, B, E, D, C, D, Part i (X 4)

Finish On G





| /  slide up
| \  slide down
| h  hammer-on
| p  pull-off
| ~  vibrato
| +  harmonic
| x  Mute note
===============================================================================
Comments