The Features - Circus Chords & Tabs

 

Circus Chords & Tabs

The Features Chords & Tabs

Version: 1 Type: Tab 0 ratings
1 star 2 stars 3 stars 4 stars 5 stars
comments

Circus Tab

   
-------------------------------------------------------------------------------
			     Circus - The Features
-------------------------------------------------------------------------------
The Features are from Tennesee, they are not very big in the UK yet, they're album is
due out on April 18th European. They have done fairly well in America and are on their
way across Eurpope right now.

Tabbed by: Gladman
Email: stevie.gladman@ntlworld.com

Tuning: normal

Intro
	D A D  G A# A (4 times)
verse
	D A# A (This is done fingerpicking)
Chorus  
	F A D A# (twice then;)
				F A# A G (4 times then finish on A)
[ Tab from: http://www.guitartabs.cc/tabs/t/the_features/circus_tab.html ]
Same as Intro
	D A D  G A# A (2 times)
Verse
	D A# A (fingerpicking at first followed by bits of distortion)
Chorus
	F A D A# (twice then;)
				F A# A G (only 3 times then finish on A)
Bridge
A lot of crazy stuff goes on here but the bass plays the Verse line
twice then the chorus line twice.
The solo is played over the chorus Bass line and goes like so.

e|-------------------------------------------------------------|
B|------------------------------------------------15~~~~~~18---|
G|----------------------------------------14~~~~~~-------------|
D|------------------12~~~~~~15~~~~~~~~~~~~---------------------|
A|---8~~~~~~12~~~~~~-------------------------------------------|
E|-------------------------------------------------------------|

Chorus
	F A D A# (twice then;)
				F A# A G (4 times then A, then finish on D)






===============================================================================
Comments