The Features - Circus Chords & Tabs

 

Circus Chords & Tabs

The Features Chords & Tabs

Version: 1 Type: Bass Tab 0 ratings
1 star 2 stars 3 stars 4 stars 5 stars
comments

Circus Bass Tab

Circus bass tab

Tabbed By: Steven Gladman
E-mail:    stevie.gladman@ntlworld.com


Verse Bass Tab

G|---------------------|
D|---------------------|
A|---5---5-----8---7---|
E|-----5---5-6---5-----|

Chorus Bass Tab
[ Tab from: http://www.guitartabs.cc/tabs/t/the_features/circus_btab.html ]
G|------------------------------------------------------------------|
D|------------------------------------------------------------------|
A|---------------------------------5-5-5-5-5-5-5-5------------------|
E|-1-1-1-1-1-1-1-1-5-5-5-5-5-5-5-5-----------------6-6-6-6-6-5-3----|
Comments