The Fall Of Troy - Webs Chords & Tabs

 

Webs Chords & Tabs

The Fall Of Troy Chords & Tabs

Version: 7 Type: Tab

Webs Tab

-----------------------------------------------------------------------------
			     WEBS -- THE FALL OF TROY
-----------------------------------------------------------------------------
Tabbed by: Damon!
Email: theonlything_worse@hotmail.com

Tuning: EADGBe

Note(s): Yess, I KNOW that this is not how Thom plays this song. There's no
              need to let me know. Yes, there're most likely tons of errors
              here. I encourage you to make any of your own tweaks or fixes
              to this if you feel the need. So, let me know what you think.

e|--------------------------------------------------------------------------|
B|--------------------------------------------------------------------------|
G|--------------------------------------------------------------------------|
D|--------------2h4--2----------------------2h4--2~---6p2-------------------|
A|--------2-4--------------------------2-4-----------------6~~--7---4-------|
E|--0~~~---------------------0~~~--------------------------4~~--------------|



e|--------------------------------------------------------||----------------|
B|-----------------------------------------------------o--||----------------|
G|-----2~~~---2p1-----------------------------------------||----------------|
D|-----2~~~------2----4/6---------------------------------||----------------|
A|-0---0~~~--------------------------------------------o--||----------------|
E|----(0)-------------------------------------------------||----------------|




e||-------------------------------------------------------------------------|
B||--O----------------------------------------------------------------------|
G||-------------------------------------------------------------------------|
D||---------------2h4--2----------------2h4--2~---6p2-----------------------|
A||--O-------2h4-------------------2h4-----------------6~~--7---4-----------|
E||----0~~~----------------0~~~------------------------4~~------------------|
       1. On the first day                I hoped..    see this through.
        2. See you're not..             I'm clearly..  getting through.

e|--------------------------------------------------------------------------|
B|--------------------------------------------------------------------------|
G|-----2~~~---2p1-----------------------------------------------------------|
D|-----2~~~------2----4/6---------------------------------------------------|
A|-0---0~~~-----------------------------------------------------------------|
E|----(0)-------------------------------------------------------------------|


[ Tab from: http://www.guitartabs.cc/tabs/t/the_fall_of_troy/webs_tab_ver_7.html ]
e|--------------------------------------------------------------------------|
B|--------------------------------------------------------------------------|
G|--------------------------------------------------------------------------|
D|--------------2h4--2----------------------2h4--2~---6p2-------------------|
A|--------2/4-----------4p2------------2/4-----------------6~~--7---4-------|
E|--0~~~---------------------0~~~--------------------------4~~--------------|
       1. But now you're..                    I don't..    s'possed to do.
        2. So if you're..                   I won't..      front of you.


e|-----------------------------------------||-------------------------------|
B|-------------------------------------O---||-------------------------------|
G|-----2~~~---2p1--------------------------||-------------------------------|
D|-----2~~~------2----4/6------------------||-------------------------------|
A|-----0~~~----------------------------O---||-------------------------------|
E|----(0)----------------------------------||-------------------------------|


[The timing here can get kinda tricky. I'll try to help, but listen closely.]



e|---5--7----------4-----------5----2------x-x-x---4-/--7------4-----4------|
B|---x--x----------x-----------x----x------8-8-8---5-/--8------5-----5------|
G|---6--6----------6-----------6----2------7-7-7---4-/--7------4-----4------|
D|---7--7----------7-----------7----1------9-9-9---6-/--9------6-----6------|
A|---0--0----------0-----------0----2------7-7-7---4-/--7------4-----4------|
E|---x--x----------x-----------x-----------7-7-7---x----x------x-----x------|
        Tell me..  something..      web..         Can't..see   You  know


e|---7--------4------------x-----x--x--x--x---------------------------------|
B|---8--------5------------x-----x--1--1--x---------------------------------|
G|---7--------4------------x-----1--2--2--1---------------------------------|
D|---9--------6------------x-----2--2--2--2---------------------------------|
A|---7--------4------------x-----2--0--0--2---------------------------------|
E|---x--------x------------x-----0--x--x--0---------------------------------|
    This..    closed                  after all.


Solo! [sorta]



e|----------------------------------7-------9--12--9--12--9-----------------|
B|-----------------5-7-(7)b9--5-4-5----7/9----------------------------------|
G|------------4-6-----------------------------------------------------------|
D|-------4-6----------------------------------------------------------------|
A|--4-7---------------------------------------------------------------------|
E|--------------------------------------------------------------------------|

e|--7--9--7-----------------------------------------------------------------|
B|-----------9--7--------7-----7--(7)b9--5--4b5b4~~~~-----------------------|
G|-----------------9--9------------------------------6~~~~-4~~~~------------|
D|--------------------------------------------------------------------------|
A|--------------------------------------------------------------------------|
E|--------------------------------------------------------------------------|


From here, you'll play the verse once more,
then you'll head into the chorus once more,
and last, it is the outro, which is exactly
like the introduction. You should end up on
an E chord instead of just an open E string.


Sorta like this.
e|---(0)~~~----|
B|---(0)~~~----|
G|----1~~~~----|
D|----2~~~~----|
A|----2~~~~----|
E|----0~~~~----|


Now go have fun!