The Fall Of Troy - The Circus That Has Brought Us Back To These Nights Chords & Tabs

 

The Circus That Has Brought Us Back To These Nights Chords & Tabs

The Fall Of Troy Chords & Tabs

Version: 1 Type: Tab 0 ratings
1 star 2 stars 3 stars 4 stars 5 stars
comments

The Circus That Has Brought Us Back To These Nights Tab

The fall of troy kick ass 

The Circus That Has Brought Us Back To These Nights (Yo Chocola!)

#Intro A#	*=repeat 4x	#=repeat 2x			m   <   f
e|----------------------------------0------------------------------------------------------|
B|--(6-6-6)-(5-5-5)-(8-8-8)-(6-6-6)-5------(6-6-6)-(5-5-5)-(8-8-8)-(6-6-6)--5-5-5-5-5-5-5-5|
G|--(7-7-7)-(7-7-7)-(7-7-7)-(7-7-7)-7------(7-7-7)-(7-7-7)-(7-7-7)-(7-7-7)--7-7-7-7-7-7-7-7|
D|-----------------------------------------------------------------------------------------|
A|-----4x------2x------2x------4x-------------4x------2x------2x------4x-------------------|
E|-----------------------------------------------------------------------------------------|

#Intro B#	x=Hand Mute	p=Pull off					m   <   f
e|---0-----------------------0---------------------0-----------------------0---------------|
B|---6-----------------------6-------------8p6p5---6---------------------xx6---------------|
G|---7-----------------------7---------------------7---------------------xx7---------------|
D|-----------------------------------------------------------------------------------------|
A|-----------------------------------------------------------------------------------------|
E|-----------------------------------------------------------------------------------------|

#Verse 1A#	"Will the kids in the back deny it?!"
e|------------------------------------------------------------|
B|---6-6-6--6-6-6--6-6-6--6-6-6--5-5-5--5-5-5--8-8-8--8-8-8---|
G|---7-7-7--7-7-7--7-7-7--7-7-7--7-7-7--7-7-7--7-7-7--7-7-7---|
D|------------------------------------------------------------|
A|------------------------------------------------------------|
E|------------------------------------------------------------|

#Verse 1B#	h=Hammer on	p=Pull off
e|------------------------------------------------------------|
B|----------10-----6------6h8----6p5-----------5h6--------5---|
G|---7----------------------------------5---------------------|
D|------------------------------------------------------------|
A|------------------------------------------------------------|
E|------------------------------------------------------------|

#Verse 1A#	"Their heads are all empty..."	
e|------------------------------------------------------------|
B|---6-6-6--6-6-6--6-6-6--6-6-6--5-5-5--5-5-5--8-8-8--8-8-8---|
G|---7-7-7--7-7-7--7-7-7--7-7-7--7-7-7--7-7-7--7-7-7--7-7-7---|
D|------------------------------------------------------------|
A|------------------------------------------------------------|
E|------------------------------------------------------------|

#Verse 1B#	/=Slide
e|-----------------------------------------------11------13---|
B|----------10-----6------8/10---8------10/13-----------------|
G|---7--------------------------------------------------------|
D|------------------------------------------------------------|
A|------------------------------------------------------------|
E|------------------------------------------------------------|

> Play Verse 1A & Verse 1B

#Chorus A#	*=play 8x	#=play 3x P.M.	h=Hammer on	p=Pull off
e|----*---------------------------------------------*--------------------------------|
B|---6----#---6p5p0-0h8p6p5---*--#-----------------6----#-------5-6-0h8p6p5---*--#---|
G|---7---7--7---------------10--7------------------7---7--7-7-7-------------10--7----|
D|-------7----------------------7----------------------7------------------------7----|
A|-------5------------------8---5----------------------5--------------------8---5----|
E|-------5----------------------5----------------------5------------------------5----|

#Chorus B#	*=play 8x	#=play 3x P.M.	h=Hammer on	p=Pull off
e|---------------------------*-------------------------------------------------------|
B|-----*--#-----------------6----#---6p5p0-0h8p6p5---*--#---------------------*--#---|
G|---10--7------------------7---7--7---------------10--7--------------------10--7----|
D|-------7----------------------7----------------------7------------------------7----|
A|---8---5----------------------5------------------8---5--------------------8---5----|
E|-------5----------------------5----------------------5------------------------5----|

#Bridge 1A#	h=Hammer on	p=Pull off	b=Bend		r=Release		
e|-----10--|-----10p8-10p8-------|--8h10--|------13----11h13-|------15h13--|17b--r15-|
B|8h10-----|8h10-----------10p8--|8-------|11h13----11-------|13h15--------|---------|
G|-----------------------------------------------------------------------------------|
D|-(3X)----------------------------(4X)------------(2X)----------(3X)----------------|
A|-----------------------------------------------------------------------------------|
E|-----------------------------------------------------------------------------------|

#Bridge 1B#
e|------------------------------------------------------------------------|
B|666--666--666--666--555--555--888--888--666--666--666--666--555555558888|
G|777--777--777--777--777--777--777--777--777--777--777--777--777777777777|
D|------------------------------------------------------------------------|
A|------------------------------------------------------------------------|
E|------------------------------------------------------------------------|

> Play Verse 1A & Verse 1B 

#Chorus A#	*=play 8x	#=play 3x P.M.	p=Pull off		
e|----*---------------------------------------------*------------------------------------------|
B|---6----#---6p5p0-0h8p6p5---*--#-----------------6----#---6p5p0-0h8p6p5-----*----------------|
G|---7---7--7---------------10--7------------------7---7--7-----------------10--7-7-7-777-7-7-7|
D|-------7----------------------7----------------------7------------------------7-7-7-777-7-7-7|
A|-------5------------------8---5----------------------5--------------------8---5-5-5-555-5-5-5|
E|-------5----------------------5----------------------5------------------------5-5-5-555-5-5-5|

#Chorus B#	*=play 8x	#=play 3x P.M.	p=Pull off
e|---------------------------*-----------------------------------------------------------------|
B|-----*--#-----------------6----#---6p5p0-0h8p6p5---*--#---------------------*----------------|
G|---10--7------------------7---7--7---------------10--7--------------------10--7--------------|
D|-------7----------------------7----------------------7------------------------7--------------|
A|---8---5----------------------5------------------8---5--------------------8---5--------------|
E|-------5----------------------5----------------------5------------------------5--------------|
[ Tab from: http://www.guitartabs.cc/tabs/t/the_fall_of_troy/the_circus_that_has_brought_us_back_to_these_nights_tab.html ]
#Bridge 2A# Play 4x	p=Pull off	/=Slide 
e|------------------------------------------------|
B|----------------------6p5p0-6p5p0-6p5p0-8p6p5---|
G|---7/10----7/10----3----------------------------|
D|---7/------7/------3----------------------------|
A|---5/8-----5/8-----1----------------------------|
E|------------------------------------------------|

#Bridge 2B# Play 4x	p=Pull off	/=Slide
e|------------------------------------------------|
B|------------------------------------------------|
G|---7/10----7/10----3--3p2p0-3p2p0-3p2p0-5p3p2---|
D|---7/------7/------3----------------------------|
A|---5/8-----5/8-----1----------------------------|
E|---5-------5-------1----------------------------|

#Verse 2A# Play 2x	*=Play 3x	p=Pull off
e|---0-----0-------0-----0--------------0-3p0---0--*---*--|
B|---6-6-----8p6---6-6-----8p6----6-6-----------6-6---6---|
G|---7---7-------7-5---5-------5--3---3-------3-5-5---7---|
D|--------------------------------------------------------|
A|--------------------------------------------------------|
E|--------------------------------------------------------|

#Verse 2B#	p=Pull off
e|---0-------------0-----0----------------------0---------0---------0--------------0----0---|
B|---6-------------6-------8p6----6-------------5---------6---------5---------6----6----6---|
G|---7-------------5-----------5--3-------------6---------7---------6---------3----5----7---|
D|------------------------------------------------------------------------------------------|
A|------------------------------------------------------------------------------------------|
E|------------------------------------------------------------------------------------------|

#Verse 2A# 	^=Play 3x	*=Play 12x (triplets)	#=play 6x
e|---0--^--------0--^--------0----^--0----------------------*---------*------*------#----#--|
B|---6-6-6-8---6-6-6---8-6-----6-6-6-----6-5-5-5--5-6-6-6--6---------5------6------5----6---|
G|---7-7-----7---5-5-5-----5---3-3-----3---2-2-2--2-3-3-3--7---------6------3------2----3---|
D|------------------------------------------------------------------------------------------|
A|------------------------------------------------------------------------------------------|
E|------------------------------------------------------------------------------------------|

#Verse 2B#	*=Play 12x (triplets)	#=Play 6x
e|----*-----------*-------------*-----------*---------*---------*---------*---------#----#--|
B|---6-----------6-------------6-----------5---------6---------5---------6---------5----6---|
G|---7-----------5-------------3-----------2---------7---------6---------3---------2----3---|
D|------------------------------------------------------------------------------------------|
A|------------------------------------------------------------------------------------------|
E|------------------------------------------------------------------------------------------|

#Verse 2A# Play 2x	*=Play 3x
e|---0--*--------0--*--------0----*--0---------------------|
B|---6-6-6-8---6-6-6---8-6-----6-6-6-----6-5-5-5--5-6-6-6--|
G|---7-7-----7---5-5-5-----5---3-3-----3---2-2-2--2-3-3-3--|
D|---------------------------------------------------------|
A|---------------------------------------------------------|
E|---------------------------------------------------------|

#Verse 2B# Play 2x	*=Play 3x
e|---0--*--------0--*--------0----*--0---------------------|
B|---6-6-6-8---6-6-6---8-6-----6-6-6-----6-5-5-5--5-6-6-6--|
G|---7-7-----7---5-5-5-----5---3-3-----3---2-2-2--2-3-3-3--|
D|---------------------------------------------------------|
A|---------------------------------------------------------|
E|---------------------------------------------------------|

#Verse 2A#	*=Play 3x	#=Play 6x
e|----*--*---------*--*--*---------*--*--*-3p0-----#----#--|
B|---6--6--8p6-6--6--6--6--8p6-6--6--6--6--6-6-6--5----6---|
G|---7--7--7-7-7--7--5--5--5-5-5--5--3--3--3-3-3--2----3---|
D|---------------------------------------------------------|
A|---------------------------------------------------------|
E|---------------------------------------------------------|

#Verse 2B#	*=Play 3x	#=Play 6x 
e|----*--*---------*--*--*---------*--*--*-3p0-----#----#--|
B|---6--6--8p6-6--6--6--6--8p6-6--6--6--6--6-6-6--5----6---|
G|---7--7--7-7-7--7--5--5--5-5-5--5--3--3--3-3-3--2----3---|
D|---------------------------------------------------------|
A|---------------------------------------------------------|
E|---------------------------------------------------------|

#Lead A#	*=Play 12x (triplets)	#=Play 6x
e|----*---------------------------------*--------------*--------------#--------#--|
B|---6---------------------------------6--------------6--------------5--------6---|
G|---7---------------------------------5--------------3--------------2--------3---|
D|--------------------------------------------------------------------------------|
A|--------------------------------------------------------------------------------|
E|--------------------------------------------------------------------------------|

#Lead B#	p=Pull off	h=Hammer on	/=Slide 	b=Bend		\=Slide down
e|---10p8-8h10-8h10p8-8h10p8-8h10p8-10/13-13-13p11-11h13p11-11h13p11-11h13p11-13/15-15-15-17|
B|------------------------------------------------------------------------------------------|
G|------------------------------------------------------------------------------------------|
D|------------------------------------------------------------------------------------------|
A|------------------------------------------------------------------------------------------|
E|------------------------------------------------------------------------------------------|

|-17-17-19-19-20b20b20b-\\\----|
|------------------------------|
|------------------------------|
|------------------------------|
|------------------------------|
|------------------------------|


> Play Bridge 2A & Bridge 2B

#Outro A#	*=Play 3x	%=Volume Fade	#=Play 6x	\=Slide down
e|-*--*--*--*--*--*--*--*--*--*--*--*--------------*--*--*--*--*--*--*--*--*--*--*--*--#--#---|
B|6--6--6--6--5--5--8--8--6--6--6--6--5---%-%-%-%-6--6--6--6--5--5--8--8--6--6--6--6--5--8--6\|
G|7--7--7--7--7--7--7--7--7--7--7--7--7---%-%-%-%-7--7--7--7--7--7--7--7--7--7--7--7--7--7--7\|
D|--------------------------------------------------------------------------------------------|
A|--------------------------------------------------------------------------------------------|
E|--------------------------------------------------------------------------------------------|

#Outro B#	*=Play 3x	%=Volume Fade	#=Play 6x	\=Slide down
e|0-----------------------0------------------------*--*--*--*--*--*--*--*--*--*--*--*--#--#---|
B|6-----------------------6---------------%-%-%-%-6--6--6--6--5--5--8--8--6--6--6--6--5--8--6\|
G|7-----------------------7---------------%-%-%-%-7--7--7--7--7--7--7--7--7--7--7--7--7--7--7\|
D|--------------------------------------------------------------------------------------------|
A|--------------------------------------------------------------------------------------------|
E|--------------------------------------------------------------------------------------------|
Comments