The Fall Of Troy - Rockstar Nailbomb Chords & Tabs

 

Rockstar Nailbomb Chords & Tabs

The Fall Of Troy Chords & Tabs

Version: 1 Type: Tab 0 ratings
1 star 2 stars 3 stars 4 stars 5 stars
comments

Rockstar Nailbomb Tab

   
Tuning: standard

Intro                       X3
E|-1p0|-2-1p0-2-1p0-2-3-|
B|----|-1-----1-----1-2-|
G|----|-----------------|
D|----|-----------------|
A|----|-----------------|
E|----|-----------------|

E|-2-1p0-2-1p0-------|
B|-1-----1-----8/0---|
G|-------------------|
D|-------------------|
A|-------------------|
E|-------------------|

E|-2-1p0-2-1p0-2-3-|   X3
B|-1-----1-----1-2-|
G|-----------------|
D|-----------------|
A|-----------------|
E|-----------------|

E|-2-1p0-2-1p0-2-3-2--| continue slide all up the fret board
B|-1-----1-----1-2-1--|
G|--------------------|
D|--------------------|
A|--------------------|
E|--------------------|


Slide that last tritone chord all the way up the fretboard on the last time

Verse Guitar 1                                                               X2
E|------------------------------------------------------------------------|
B|---------------------------------7xx7xx7xx7xx7x7x8xx8xx8x10101010101010-|
G|-7xx7xx7xx7xx7x7x7xx7xx7xx7xx7x7x7xx7xx7xx7xx7x7x7xx7xx7x---------------|
D|-9xx9xx9xx9xx9x9x9xx9xx9xx9xx9x9x7xx7xx7xx7xx7x7x7xx7xx7x---------------|
A|-7xx7xx7xx7xx7x7x7xx7xx7xx7xx7x7x---------------------------------------|
E|------------------------------------------------------------------------|
10 = 10, not 1 and 0

Verse Guitar 2                           Come in after guitar 1 verse plays once
E|-5p0-3-5p0-3-5p0-3-5p0-3-5p0-3--7p5---7p5---7p5---7p5---7p5---|
B|------------------------------------8-----8-----8-----8-----8-|
G|--------------------------------------------------------------|
D|--------------------------------------------------------------|
A|--------------------------------------------------------------|
E|--------------------------------------------------------------|

E|-10p8p7-10p8p7-10p8p7-10p8p7-10p8p7--12p10----12p10----14^1/4-|
B|-------------------------------------------13-------13--------|
G|--------------------------------------------------------------|
D|--------------------------------------------------------------|
A|--------------------------------------------------------------|
E|--------------------------------------------------------------|
[ Tab from: http://www.guitartabs.cc/tabs/t/the_fall_of_troy/rockstar_nailbomb_tab.html ]
Chorus-like solo thing
E|----------12p0-------15-15p12p0--12-12p10p0--7p5p0--3p2p0----------|
B|-8p0-----------10/12---------------------------------------3p0-3/5-|
G|-----7/9-----------------------------------------------------------|
D|-------------------------------------------------------------------|
A|-------------------------------------------------------------------|
E|-------------------------------------------------------------------|

E|----------12p0-------15-15^1/4--12p0-12p0--17p0-19p0--22-24^1/4-|
B|-8p0-----------10/12--------------------------------------------|
G|-----7/9--------------------------------------------------------|
D|----------------------------------------------------------------|
A|----------------------------------------------------------------|
E|----------------------------------------------------------------|

E|----------12p0-------15-15p12p0--12-12p10p0--7p5p0--3p2p0----------|
B|-8p0-----------10/12---------------------------------------3p0-3/5-|
G|-----7/9-----------------------------------------------------------|
D|-------------------------------------------------------------------|
A|-------------------------------------------------------------------|
E|-------------------------------------------------------------------|

E|----------12p0-------15-15^1/4--12p0-12p0--17p0-19^1/4-|
B|-8p0-----------10/12-----------------------------------|
G|-----7/9-----------------------------------------------|
D|-------------------------------------------------------|
A|-------------------------------------------------------|
E|-------------------------------------------------------|

Outro
E|-------------12p0-10p0-0-8p0-5p0-| X4
B|-3h5p3p0-5p0---------------------|
G|---------------------------------|
D|---------------------------------|
A|---------------------------------|
E|---------------------------------|

E|-----------------------| X2
B|-----------------------|
G|-----------------------|
D|-9--9999--9-9--9999--9-|
A|-7--7777--7-7--7777--7-|
E|-0--0000--0-0--0000--0-|

E|-------------------------| X2
B|-------------------------|
G|-------------------------|
D|-8--8888--8-5-5-5557-7-7-|
A|-7--7777--7-4-4-4446-6-6-|
E|-0--0000--0-0-0-0000-0-0-|

E|-----------------------| X2
B|-----------------------|
G|-----------------------|
D|-9--9999--9-9--9999--9-|
A|-7--7777--7-7--7777--7-|
E|-0--0000--0-0--0000--0-|
Comments