The Fall Of Troy - Mouths Like Sidewinder Missiles Chords & Tabs

 

Mouths Like Sidewinder Missiles Chords & Tabs

The Fall Of Troy Chords & Tabs

Version: 2 Type: Tab

Mouths Like Sidewinder Missiles Tab

   
-----------------------------------------------------------------------------
            Mouths Like Sidewinder Missiles  The Fall Of Troy
-------------------------------------------------------------------------------
Tabbed by: Tim
Email: snipers_48@yahoo.com

The other guy did a really bad job and it was confusing. So i tried to make it as simple 
possible. This is abouttt 80%? correct. It's the best one out there so far.

this is also my first tab.

Tuning: standard

This whole song is pretty much one guitar and extremely fast so good luck.

INTRO

e|--------7h10p0---------7p5p0-----------7h10p0--------------12h15p0-------------|
B|-------------------------------------------------------------------------------|
G|---9-----------------------------9---------------------------------------------|
D|---9---------------7-------------9----------------7----------------------------|
A|---7---------------7-------------7----------------7----------------------------|
E|-------------------5------------------------------5----------------------------|

e|-------7h10p0-------7p5p0------------p~--10h12p10h12p10h12p10----------------|
B|------------------------------------a~---------------------------------------|
G|---9---------------------------9----u~---------------------------------------|
D|---9------------7--------------9----s~---------------------------------------|
A|---7------------7--------------7----e~---------------------------------------|
E|----------------5------------------------------------------------------------|

INTRO II

e|---10h12p0----------12p10p0-------------------------10h12p0---------12---15--15/17---12--|
B|-----------------------------10h12p10----------------------------------------------------|
G|-9---------------------------------------------9-----------------------------------------|
D|-9----------------7----------------------------9---------------7-------------------------|
A|-7----------------7----------------------------7---------------7-------------------------|
E|------------------5--------------------------------------------5-------------------------|

e|----10h12p0----------12p10p0---------------------------------------------------|
B|-------------------------------------------------------------------------------|
G|-9---------------------------------------7777---5555---------------------------|
D|-9----------------7----------------------7777---5555---------------------------|
A|-7----------------7----------------------5555---3333---------------------------|
E|------------------5------------------------------------------------------------|

e|---10h12p0----------12p10p0------------------------10h12p0-------12---15--15/17---12--|
B|-----------------------------10h12p10-------------------------------------------------|
G|-9---------------------------------------------9--------------------------------------|
D|-9----------------7----------------------------9-------------7------------------------|
A|-7----------------7----------------------------7-------------7------------------------|
E|------------------5------------------------------------------5------------------------|

e|----10h12p0----------12p10p0----------------------------------------------------|
B|--------------------------------------------------------------------------------|
G|-9---------------------------------------7777---5555----------------------------|
D|-9----------------7----------------------7777---5555----------------------------|
A|-7----------------7----------------------5555---3333----------------------------|
E|------------------5-------------------------------------------------------------|


"rawwwwwwwr, (rawwwwwwwr), rawwwwwwr"
e|----------------------------------------------|----------------------|
B|----------------------------------------------|----------------------|
G|-9-9-9-9-9-9-9-9----10-10-10-10-10-10-10-10---|---9\-----------------|
D|----------------------------------------------|---9\-----------------|
A|-7-7-7-7-7-7-7-7-----8--8--8--8--8--8--8--8---|---7\-----------------|
E|----------------------------------------------|----------------------|

VERSE

"all this time alone.."

e|-------------------10p77\5---5\3--3\0-----------------10p7--7---12p7---7-------------------------|
B|--------------------------------------------------------------------------------------------------|
G|----9-9-9--9--------------------------------5-5-5--5----------------------------------------------|
D|----9-9-9--9--------------------------------5-5-5--5----------------------------------------------|
A|----7-7-7--7--------------------------------3-3-3--3----------------------------------------------|
E|--------------------------------------------------------------------------------------------------|
P.M.  . . .                                   . . .

"i cannot go home"

e|-------------------10p77\5---5\3--3\0-----------------10p7--7---12p7---7--|
B|---------------------------------------------------------------------------|
G|----9-9-9--9--------------------------------5-5-5--5-----------------------|
D|----9-9-9--9--------------------------------5-5-5--5-----------------------|
A|----7-7-7--7--------------------------------3-3-3--3-----------------------|
E|---------------------------------------------------------------------------|
P.M.  . . .                                   . . .


"artificial friend"

e|-------------------10p77\5---5\3--3\0-----------------10p7--7---12p7---7-------------------------|
B|--------------------------------------------------------------------------------------------------|
G|----9-9-9--9--------------------------------5-5-5--5----------------------------------------------|
D|----9-9-9--9--------------------------------5-5-5--5----------------------------------------------|
A|----7-7-7--7--------------------------------3-3-3--3----------------------------------------------|
E|--------------------------------------------------------------------------------------------------|
P.M.  . . .                                   . . .

"you reap what you sow!"

e|-------------------10p77\5---5\3--3\0-----------------10p7--7---12p7---7-------------------------|
B|--------------------------------------------------------------------------------------------------|
G|----9-9-9--9--------------------------------5-5-5--5----------------------------------------------|
D|----9-9-9--9--------------------------------5-5-5--5----------------------------------------------|
A|----7-7-7--7--------------------------------3-3-3--3----------------------------------------------|
E|--------------------------------------------------------------------------------------------------|
P.M.  . . .                                   . . .

CHORUS

"you said"

e|---10h12p0----------12p10p0-------------------------10h12p0---------12---15--15/17---12-------------|
B|-----------------------------10h12p10---------------------------------------------------------------|
G|-9---------------------------------------------9----------------------------------------------------|
D|-9----------------7----------------------------9---------------7------------------------------------|
A|-7----------------7----------------------------7---------------7------------------------------------|
E|------------------5--------------------------------------------5------------------------------------|

"i hope"
e|----10h12p0----------12p10p0---------------------------------------------|
B|-------------------------------------------------------------------------|
G|-9---------------------------------------7777---5555---------------------|
D|-9----------------7----------------------7777---5555---------------------|
A|-7----------------7----------------------5555---3333---------------------|
E|------------------5------------------------------------------------------|

"cause you were the one that made me feel better"
[ Tab from: http://www.guitartabs.cc/tabs/t/the_fall_of_troy/mouths_like_sidewinder_missiles_tab_ver_2.html ]
e|---10h12p0----------12p10p0------------------------10h12p0-------12---15--15/17---12-----------|
B|-----------------------------10h12p10----------------------------------------------------------|
G|-9---------------------------------------------9-----------------------------------------------|
D|-9----------------7----------------------------9-------------7---------------------------------|
A|-7----------------7----------------------------7-------------7---------------------------------|
E|------------------5------------------------------------------5---------------------------------|

"i don't understand what you sayyyy"

e|----10h12p0----------12p10p0---------------------------------------------|
B|-------------------------------------------------------------------------|
G|-9---------------------------------------7777---5555---------------------|
D|-9----------------7----------------------7777---5555---------------------|
A|-7----------------7----------------------5555---3333---------------------|
E|------------------5------------------------------------------------------|


VERSE

"all this time you've known"

e|-------------------10p77\5---5\3--3\0-----------------10p7--7---12p7---7-------------------------|
B|--------------------------------------------------------------------------------------------------|
G|----9-9-9--9--------------------------------5-5-5--5----------------------------------------------|
D|----9-9-9--9--------------------------------5-5-5--5----------------------------------------------|
A|----7-7-7--7--------------------------------3-3-3--3----------------------------------------------|
E|--------------------------------------------------------------------------------------------------|
P.M.  . . .                                   . . .

 "such condescending tone"
e|-------------------10p77\5---5\3--3\0-----------------10p7--7---12p7---7-------------------------|
B|--------------------------------------------------------------------------------------------------|
G|----9-9-9--9--------------------------------5-5-5--5----------------------------------------------|
D|----9-9-9--9--------------------------------5-5-5--5----------------------------------------------|
A|----7-7-7--7--------------------------------3-3-3--3----------------------------------------------|
E|--------------------------------------------------------------------------------------------------|
P.M.  . . .                                   . . .

"taste the tears of men"

e|-------------------10p77\5---5\3--3\0-----------------10p7--7---12p7---7-------------------------|
B|--------------------------------------------------------------------------------------------------|
G|----9-9-9--9--------------------------------5-5-5--5----------------------------------------------|
D|----9-9-9--9--------------------------------5-5-5--5----------------------------------------------|
A|----7-7-7--7--------------------------------3-3-3--3----------------------------------------------|
E|--------------------------------------------------------------------------------------------------|
P.M.  . . .                                   . . .

"did it make you feel better then?"

e|-------------------10p77\5---5\3--3\0-----------------10p7--7---12p7---7-------------------------|
B|--------------------------------------------------------------------------------------------------|
G|----9-9-9--9--------------------------------5-5-5--5----------------------------------------------|
D|----9-9-9--9--------------------------------5-5-5--5----------------------------------------------|
A|----7-7-7--7--------------------------------3-3-3--3----------------------------------------------|
E|--------------------------------------------------------------------------------------------------|
P.M.  . . .                                   . . .

CHORUS

"you said"

e|---10h12p0----------12p10p0-------------------------10h12p0---------12---15--15/17---12--------------|
B|----------------------------------10h12p10-----------------------------------------------------------|
G|-9---------------------------------------------9-----------------------------------------------------|
D|-9----------------7----------------------------9---------------7-------------------------------------|
A|-7----------------7----------------------------7---------------7-------------------------------------|
E|------------------5--------------------------------------------5-------------------------------------|

"i hope"
e|----10h12p0----------12p10p0---------------------------------------------|
B|-------------------------------------------------------------------------|
G|-9---------------------------------------7777---5555---------------------|
D|-9----------------7----------------------7777---5555---------------------|
A|-7----------------7----------------------5555---3333---------------------|
E|------------------5------------------------------------------------------|

"cause you were the one that made me feel better"

e|---10h12p0----------12p10p0------------------------10h12p0-------12---15--15/17---12-----------|
B|---------------------------10h12p10------------------------------------------------------------|
G|-9---------------------------------------------9-----------------------------------------------|
D|-9----------------7----------------------------9-------------7---------------------------------|
A|-7----------------7----------------------------7-------------7---------------------------------|
E|------------------5------------------------------------------5---------------------------------|

"i don't understand what you sayyyy"

e|----10h12p0----------12p10p0---------------------------------------------|
B|-------------------------------------------------------------------------|
G|-9---------------------------------------7777---5555---------------------|
D|-9----------------7----------------------7777---5555---------------------|
A|-7----------------7----------------------5555---3333---------------------|
E|------------------5------------------------------------------------------|


This part is just guitar then goes to the whole band.
It's just a variation of these notes. It's not that hard to figure out.

e|----------------------------10------------------------------------------------------------------------|
B|--12--------------------------------------------------------------------------------------------------|
G|---------------12-------------------------------------------------------------------------------------|
D|------10--10------10-10--------------12------------11------------14p12p11-----------------------------|
A|-------------------------------------------12--12------12--12---------------12----bend14--------------|
E|------------------------------------------------------------------------------------------------------|
palm muted.................................................................

e|--------------------------10--------------------------------------------------------------------------------|
B|--12-------12-------12--------------------------------------------------------------------------------------|
G|-----12-------12-------12-----12----------------------------------------------------------------------------|
D-------------------------------------11-12-11-12----11--12--14p12p11-----------------------------------------|
A|------------------------------------------------12-----------------12---------------------------------------|
E|------------------------------------------------------------------------------------------------------------|


This is the phaser part and soloing wah wah and stuff which I don't feel like tabbing. 
this part's probably the easiest part to tab, but I don't feel like doing it. I did tab 
the last chords for you though. Just solo over this or something

e|-------------------------------------B------------------------------------------------------------------|
B|-------------------------------------R------------------------------------------------------------------|
G|-------------------------------------E------------------------------------------------------------------|
D|----7-7-7-7----10-10-10----7-7-7-7---A---------10-9--5--7------10--9--5--7\-----------------------------|
A|----7-7-7-7----10-10-10----7-7-7-7---K---------10-9--5--7------10--9--5--7\-----------------------------|
E|----5-5-5-5----8--8--8-----5-5-5-5-------------8--7--3--5-------8--7--3--5\-----------------------------|

| /  slide up
| \  slide down
| h  hammer-on
| p  pull-off
| ~  vibrato
| +  harmonic
| x  Mute note
===============================================================================