The Fall Of Troy - Last March Of The Ents Chords & Tabs

 

Last March Of The Ents Chords & Tabs

The Fall Of Troy Chords & Tabs

Version: 1 Type: Tab 0 ratings
1 star 2 stars 3 stars 4 stars 5 stars
comments

Last March Of The Ents Tab

The Fall Of Troy - The Last March Of The Ents

Left & Right-Intro
e|--------------| 
B|-1------------|
G|-2----10------| make noise in between the chords. 
D|-2-----9------|
A|-0-----8------|
E|--------------|

Left-Into/Verse 1._______2.________
e|-------------------------------------------------------------|---------|
B|-1-11-5---5---3---3---1---1----6-66-5---5---3---3---6---6----|-6h8p6h8-|
G|-2-22--0h5-0h5-0h4-0h4-2p0-2p0-4-44--0h5-0h5-0h4-0h4-0h7-0h7-|---------|
D|-2-22--------------------------3-33--------------------------|---------|
A|-0-00--------------------------------------------------------|---------|
E|-------------------------------------------------------------|---------|

Right-Intro/Verse 1.___________2.____________
e|------12p0--12p0--10p0--10p0--8p0--8p0-----------12p0--12p0--10p0--10p0--13p0--13p0---|-13h15p13h15-| 
B|-1-11-----13----13----12----12---10---10-------------13----13----12----12----15----15-|-------------| 
G|-2-22------------------------------------10-1010--------------------------------------|-------------|
D|-2-22-------------------------------------9--9-9--------------------------------------|-------------|
A|-0-00-------------------------------------8--8-8--------------------------------------|-------------|
E|--------------------------------------------------------------------------------------|-------------|

Left-Chorus
e|-12----------13-13-13-15-13-12--15------13-13-13-15-13-|
B|-----13-----------------------------13-----------------|
G|--9------14--10-10-10-12-10--9--12------10-10-10-12-10-|
D|-----10-----------------------------10-----------------|
A|---------12--------------------------------------------|
E|-------------------------------------------------------|
[ Tab from: http://www.guitartabs.cc/tabs/t/the_fall_of_troy/last_march_of_the_ents_tab.html ]
Right-Chorus
e|----------------|
B|-5----6-6-6-8-6-|
G|-5----5-5-5-5-5-| just fool around with that
D|-7----7-7-7-7-7-|
A|-0----0-0-0-0-0-|
E|----------------|

Left-Middle
e|-------------|---------|---------|------------------|
B|-------------|---------|---------|------------------|
G|----------2--|---5-----|-5-4-5-7-|-5-4-5-7-5-4-10-9-| 
D|-------001-1-|-7---7-7-|-7-7-7-7-|------------------|
A|-000330------|-0-3-0-6-|-0-0-0-0-|-3-2-3-5-3-2--9-7-|
E|-------------|---------|---------|------------------|

Right-Middle
e|-------------|---------|-------------|------------------|
B|-------------|---------|-------------|------------------|
G|----------2--|-5-4-5-2-|-15-14-15-17-|-5-4-5-7-5-4-10-9-|
D|-------001-1-|-7-5-7-1-|-------------|------------------|
A|-000330------|-0-0-0-0-|-13-12-13-12-|-3-2-3-5-3-2--9-7-|
E|-------------|---------|-------------|------------------|

Left-Outro 1,2,4____________3.___________________ 
e|-12p0--12p0--10p0--10p0--8p0--8p0--131313-|-15p0--15p0--131313-|
B|-----13----13----12----12---10---10151515-|-----17----17151515-|
G|------------------------------------------|--------------------|
D|------------------------------------------|--------------------|
A|------------------------------------------|--------------------|
E|------------------------------------------|--------------------|

Right-Outro 1,2,4_______3.____________________________
e|-----------------------------|-----------------------------|
B|-5---5---3---3---1---1---666-|-5---5---3---3---8---8---666-|
G|--0h5-0h5-0h4-0h4-2p0-2p0777-|--0h5-0h5-0h4-0h4-0h9-0h9777-|
D|-----------------------------|-----------------------------|
A|-----------------------------|-----------------------------|
E|-----------------------------|-----------------------------|

for the outro play the intro parts twice. then play the outro, and end on A.
-the end-
Comments