The Fall Of Troy - I Just Got This Symphony Going Chords & Tabs

 

I Just Got This Symphony Going Chords & Tabs

The Fall Of Troy Chords & Tabs

Version: 1 Type: Bass Tab

I Just Got This Symphony Going Bass Tab

   
The Fall Of Troy - Doppleganger
"I just got this symphony going"

tabbed by saaarg
email: petrillosergio@hotmail.com


viewed best in lucida console font (copy/paste to notepad ;) )

tuning: EADG

(0:00 - 0:14)
g|---------------------------------------------|
d|---------------------------------------------| 
a|---------------------7--7-7--7-10--10-10--10-| x2
e|-9--9-9--9-9--9-9--9-------------------------|


(0:15 - 0:26)
    x4                                       x4
|---------|-----------------------------|---------|---------------------------|
|---------|-----------------------------|---------|---------------------------|
|---------|---------------10--10-10--10-|---------|---------------10-10-10-10-|
|-8-10-12-|-12--12-12--12---------------|-8-10-12-|-12--12-12--12-------------|


(0:26 - 0:44)
     x2
|-------4h5-|------------------------|-------------------------------|x2 all
|-----------|------------------------|-------------------------------|except
|-----------|-------5h7--------------|-----------------55-555-77-777-| first 
|-5-5-5-----|-5-5-5-----8-10-8-7-8-7-|-1-1-111-1-1-111---------------|part


(0:44 - 1:00)
|----------------------------|--------------------------|
|----------------------------|--------------------------|
|--------66-666-55-555-8-8-8-|--------66-666-55-555-----|  x2
|-55-555---------------------|-55-555---------------1-1-|


(1:00 - 1:17)

     x2
|-------4h5-|------------------------|-------------------------------|x2 all
|-----------|------------------------|-------------------------------|except
|-----------|-------5h7--------------|-----------------55-555-77-777-| first 
|-5-5-5-----|-5-5-5-----8-10-8-7-8-7-|-1-1-111-1-1-111---------------|part



(1:17 - 1:32)
|----------------------------|--------------------------|
|----------------------------|--------------------------|
|--------66-666-55-555-8-8-8-|--------66-666-55-555-----|  x2
|-55-555---------------------|-55-555---------------1-1-|


(1:32 - 1:50) 
                                                       x3
|-----------------------------------|---------------------------------------|
|-------55-55-----------------------|-----------55-55-----------------------|
|---5h7-------7-88-88--5-77-77--5h7-|-------5h7-------7-88-88--5-77-77--5h7-|
|-5---------------------------------|-55-55---------------------------------|

(1:50 - 2:08)
[ Tab from: http://www.guitartabs.cc/tabs/t/the_fall_of_troy/i_just_got_this_symphony_going_btab.html ]
            x3
|---------------------------------|------------------------|
|---------------------------------|------------------------|
|--------88-888-55-555------------|--------88-888-55-555---|
|-55-555---------------55-5-7h8p7-|-55-555---------------5-|


(2:08 - 2:25)
                                                 x3
|-----------------------------------|---------------------------------------|
|-------55-55-----------------------|-----------55-55-----------------------|
|---5h7-------7-88-88--5-77-77--5h7-|-------5h7-------7-88-88--5-77-77--5h7-|
|-5---------------------------------|-55-55---------------------------------|


(2:25 - 2:33)
        x3
|-------------------|
|-------------------|
|-------------------|
|-45-45-45-45-45-45-|

(2:33 - 2:49)
          x4
|----------------------|
|----------------------|
|----------------------|
|5-5-5-5-5-5-5-000-333-|

(2:49 - 3:13)
                 x4
|------------------------------------------|
|------------------------------------------|
|-0-0-0-0-0-0-0-0--------------3-3-3-3-3-3-|
|--4-4-4-4-4-4-4-4-0-0-0-0-0-0-------------|


(3:13 - 3:31)   
                               x4
|--------------------|-------------------------|
|--------------------|-------------------------|
|--------------------|-------3-3-3-------------|
|-55------55------55-|-5-5-5-------5-5-5-3-0-3-|


(3:31 - 3:47)
|----------------------------|--------------------------|
|----------------------------|--------------------------|
|--------66-666-55-555-8-8-8-|--------66-666-55-555-----|  x2
|-55-555---------------------|-55-555---------------1-1-|


(3:47 - 4:07)
|---------------|-------------------------------------------------------|
|---------------|-------------------------------------------------------|
|---------------|-0-0-0-0-0-0-------------------------------------------|
|-5---5---5---5-|--2-2-2-2-2-2-000-333--2-0-2-0-2-0-2-0-2-0-2-0-555-777-|

|-----------------------------------------------------|
|-----------------------------------------------------|
|-0-0-0-0-0-0-----------------------------------5-7-0-|
|--2-2-2-2-2-2-000-333--2-0-2-0-2-0-2-0-2-0-2-0-------|


| /  slide up
| \  slide down
| h  hammer-on
| p  pull-off
| ~  vibrato
| +  harmonic
| x  Mute note

i did this as well as i could.. even threw in times and its in order... for 

whoever really cares anyways
hope you enjoy it.. its a great song