The Fall Of Troy - Ghostship Part 4 Chords & Tabs

 

Ghostship Part 4 Chords & Tabs

The Fall Of Troy Chords & Tabs

Version: 1 Type: Tab 0 ratings
1 star 2 stars 3 stars 4 stars 5 stars
comments

Ghostship Part 4 Tab

   
this is a great hardcore band just came out with a self-titled album and these
guys(three-piece band) are just phenomenal on guitar, bass, and drums.

Ghostship Part IV

                               1________2__________
e|--------3h5p3p0-----------------------|------3---|I
B|-3h5p3p0-------3h5p3p0----------3-5-3-|--33/5-50-|N
G|----------------------2h4p2p0-4-------|----------|T
D|-----------------------------2-2-2-2--|-2--------|R
A|--------------------------------------|----------|O
E|--------------------------------------|----------|

(play 4 times eaach)
e|------|------|------|------------|I
B|------|------|------|--1p0-------|N
G|--4p0-|--7p0-|--2p0-|-----0-04/7-|T
D|------|------|------|------4-----|R
A|-3----|-7----|-2----|-0----------|O
E|------|------|------|------------|

e|----------------------7h8p7p5-|V
B|---------10-10----------------|E
G|-7-------12-11-7--------------|R
D|----7--7----------7-5---------|S
A|-7-------------7----7---------|E
E|----7-8-----------7-5---------|1

                       1_____________2__________
e|---------------------7p0------10p0-|--------7-|V
B|-12--1501517150---7-----8p0--------|-8081080--|E
G|-12------------16-7--------7p0-----|----------|R
D|-10---------------5----------------|----------|S
A|-12---------------7----------------|----------|E
E|-----------------------------------|----------|2

the notes you play after the chords are most likely not right.
but they sound pretty good, so you can use those are make up
your own or something.

(play 3 times)
e|-10----15----14-----|-10----12-|M
B|---12----12----12---|---12-----|I
G|-----12----12----12-|-----12---|D
D|--------------------|----------|D
A|--------------------|----------|L
E|--------------------|----------|E
[ Tab from: http://www.guitartabs.cc/tabs/t/the_fall_of_troy/ghostship_part_4_tab.html ]
1____2______3_____________________
e|---------------17p0-|-15p0-|-12p0-12benddddddddd-|M
B|-15/12-0-12/15------|------|------15benddddddddd-|I
G|--------------------|------|---------------------|D
D|--------------------|------|---------------------|D
A|--------------------|------|---------------------|L
E|--------------------|------|---------------------|E

e|----------------------------|M
B|----------------------------|U
G|--------------------(2p0h2)-|R
D|-7/9---------------2--------|D
A|-5/77-10/6-9/5-8/4-0--------|E
E|----5--8/4-7/3-6/2----------|R

e|------3------------0--0---------8--8--------------|A T M P
B|---1---1-1------3---3--3-----5---------88-1212----|F H U A
G|----4---4-4----4-4---4--4---0-0--0--0--55--9-9-66-|T E R R
D|--2--2---------------------7---7--7--7-77-1010-77-|E D T
A|-0----------2/3---3-------8--------------------88-|R E
E|--------------------------------------------------| R 

e|---------------|D C
B|---------------|I H
G|-5--3--2-------|R O
D|-7--2--2-------|T R
A|-7--0--0--2----|Y D
E|-5--2--1--0----| S

                           1_________2______________
e|-151412-7775-0-2223-5553-------15/-|----------12/-|S
B|-----12-8887-0-4445-7775-----1315/-|----101213----|O
G|---------------------------12------|---8----------|L
D|-------------------------10--------|-10-----------|O
A|-----------------------------------|--------------|
E|-----------------------------------|--------------|1 

e|-07p0---10p012p0----15p0--14p0--12p0--10p0-----|S
B|-----7h8--------1215----15----13----12----1013-|O
G|-----------------------------------------------|L
D|-----------------------------------------------|O
A|-----------------------------------------------|
E|-----------------------------------------------|2
| 
e|-07p0---10p012p0-----------------------------------------|S
B|-----7h8--------1210-10h12p10p0-8h10p8p0-7h8p7p0-1-11310-|O
G|-------------------------------------------------2-22220-|L
D|---------------------------------------------------------|O
A|---------------------------------------------------------|
E|---------------------------------------------------------|2

just play that ending part a couple times over


e|---------------------------|M
B|---------------------------|U
G|---------------------------|R
D|-7/9-----------------------|D
A|-5/77-10/6-9/5-8/4-7/3-6/2-|E
E|----5--8/4-7/3-6/2-5/1-4/0-|R

last time only. the other times you play it normally.
Comments